Ads

Delfino Plaza (Super Mario Sunshine) Guitar Tab

Submitted: Mar 06, 2015 by Alfa_ice

4.4
Average: 4.4 (5 votes)
Download | Listen
Game: Super Mario Sunshine
Composer(s): Koji Kondo, Shinobu Tanaka
Style: Arrangement, Fingerstyle
Series: Mario

AutoScroll: Slow | Medium | Fast
                                Delfino Plaza                                   


Super Mario Sunshine
Arranged by Isac Saleh
Music by Koji Kondo

Standard tuning: EADGBE


                                      ^                  
     |---3---|   |--3--|  |--3--|                        
     E    E  E   E  E  E  E  E  E  S. H.           E  T  
E||--7h--10--7S--4--3--2--0--2--3-----4-----------------|
B||-----------------------------------3-----------------|
G||-----------------------------------4------------L----|
D||-----------------------------------------------------|
A||-----------------------------------------------------|
E||-----------------------------------------------------|


    S S S S S S S S S S S S S S S S       S S S S S S S S E  S Q    S    
|---0---0----------------------------||-------9---9---0--------7-------||
|-----------8---8---7---7---6---6----||-----------8-------7------------||
|*------------------7---7---7---7---*||*----9-------------7----7------*||
|*--7---7---8---8-------------------*||*------------------------------*||
|---0---0----------------------------||---0---L------------------------||
|-----------6---6---7---7---0---0----||-----------6-------7----0-------||


  S S S S E  E   E  S E  S  S S    Q    Q    S S S S S S S S  
------9---9-----10--------------|--5-------------------------|
----------8-----------7--7h-9---|--5---------7---7---6---6---|
----9------------7----7--7------|------------7---7---7---7---|
----------------------9--9------|----------------------------|
--0---L-------------------------|----------------------------|
----------6------7----0--0------|--5----6----7---7---0---0---|


    S S S S S S S S E  S Q    S      S S S S E  E   E  S E  S  S S  
|-------9---9---0--------7-------||------9---9-----10--------------|
|-----------8-------7------------||----------8-----------7--7h-9---|
|*----9-------------7----7------*||----9------------7----7--7------|
|*------------------------------*||----------------------9--9------|
|---0---L------------------------||--0---L-------------------------|
|-----------6-------7----0-------||----------6------7----0--0------|


  Q    Q    E  E  E  E     E   E  E   E   E  E   E  E   
--5---------------------|-----10----------------10-----|
--5---------5--5--5--5--|------7-----10S--7------------|
------------6--6--6--6--|-----------------7------------|
------------------------|--0---0--0---0---0--0---0--0--|
------------------------|------------------------------|
--5----5----5--5--5--5--|------------------------------|


   E  E  E  E  E  E  E  E     E   E  E   E   E  E   E  E   
---9-----------------------|-----10----------------10-----|
--10-----------------------|------7-----10S--7------------|
---9-----------------------|-----------------7------------|
---------------------------|--0---0--0---0---0--0---0--0--|
---0--0--0--0--0--0--0--0--|------------------------------|
---------------------------|------------------------------|


   E  E  E  E  E  E  E  E     E   E  E   E   E  E   E  E   
---9-----------------------|-----10----------------10-----|
--10-----------5-----------|------7-----10S--7------------|
---9-----------6-----------|-----------------7------------|
---------------------------|--0---0--0---0---0--0---0--0--|
---0--0--0--0--0--0--0--0--|------------------------------|
---------------------------|------------------------------|


  Q     Q    H           E   E  E   E    E  E   E  E     E  E  E  E   H         
--9S----7----6--------|-------------------------------|--------------12--------|
--------6----5--------|-----10-----------------10-----|--9------------9--------|
--------7----6--------|-----10-----12S--10-----10-----|--7---------------------|
--------6----4--------|-------------------------------|--9---------------------|
--0-------------------|--8---8--8---8----8--8---8--8--|--7--7--7--7------------|
----------------------|-------------------------------|---------------0--------|


    S S S S S S S S E  S Q    S      S S S S E  E   E  S E  S  S S  
|-------9---9---0--------7-------||------9---9-----10--------------|
|-----------8-------7------------||----------8-----------7--7h-9---|
|*----9-------------7----7------*||----9------------7----7--7------|
|*------------------------------*||----------------------9--9------|
|---0---L------------------------||--0---L-------------------------|
|-----------6-------7----0-------||----------6------7----0--0------|


  Q    Q    E  E  E  E       E  E  E  E  E  E  E  E   
--5---------------------||------5--5--5--3-----7--3--|
--5---------5--5--5--5--||------------------------3--|
------------6--6--6--6--||*-----6--6--6--4--------4--|
------------7--7--7--7--||*--------------------------|
------------------------||---0--0--0--0--------------|
--5----5----5--5--5--5--||---------------3--3--3--3--|


  E  E  E  E  E  E  E  E        S S S S S S S S E  S Q    S    
--5------------------------||-------9---9---0--------7-------||
--5-----------5------------||-----------8-------7------------||
--6-----------6-----------*||*----9-------------7----7------*||
--------------------------*||*------------------------------*||
--0--0--0--0--0--0--0--0---||---0---L------------------------||
---------------------------||-----------6-------7----0-------||


  S S S S E  E   E  S E  S  S S    Q    Q    E  E  E  E   
------9---9-----10--------------|--5---------------------|
----------8-----------7--7h-9---|--5---------7--7--6--6--|
----9------------7----7--7------|------------7--7--7--7--|
----------------------9--9------|------------------------|
--0---L-------------------------|------------------------|
----------6------7----0--0------|--5----6----7--7--0--0--|


    S S S S S S S S E  S Q    S      S S S S E.  S  E  S E  S  S S  
|-------9---9---0--------7-------||------9---9-----10--------------|
|-----------8-------7------------||----------8-----------7--7h-9---|
|*----9-------------7----7------*||----9------------7----7--7------|
|*------------------------------*||----------------------9--9------|
|---0---L------------------------||--0---L-------------------------|
|-----------6-------7----0-------||----------6------7----0--0------|


  W                  
--5----------------||
--5----------------||
--6----------------||
-------------------||
-------------------||
--5----------------||




Duration Legend
---------------
W - whole
H - half
Q - quarter
E - 8th
S - 16th
T - 32nd
X - 64th
. - note dotted
|-n-|  - n-tuplets


Tablature Legend
----------------
L - tied note
x - dead note
g - grace note
(n) - ghost note
> - accentuded note
NH - natural harmonic
AH - artificial harmonic
TH - tapped harmonic
SH - semi harmonic
PH - pitch harmonic
h - hammer on
p - pull off
b - bend
br - bendRelease
pb - preBend
pbr - preBendRelease
brb - bendReleaseBend
\n/ - tremolo bar dip
\n - tremolo bar dive
-/n - tremolo bar Release up
/n\ - tremolo bar inverted dip
/n - tremolo bar return
-\n - tremolo bar Release down
S - shift slide
s - legato slide
/ -  slide into from below or out of upwards
\ -  slide into from above or out of downwards
~ - vibrato
W - wide vibrato
tr - trill
TP - tremolo picking
T - tapping
S - slap
P - pop
< - fade in
^ - brush up
v - brush down
Login or Register to remove this ad.