Ads

Sad Song (Super Mario RPG) Guitar Tab

Submitted: Jan 25, 2011 by demigorgon

5
Average: 5 (4 votes)
Download | Listen
Game: Super Mario RPG
Composer(s): Yoko Shimomura
Style: Arrangement, Fingerstyle
Series: Mario

Click here for a video example.

AutoScroll: Slow | Medium | Fast
Arranged by akguitar aka demigorgon
Sad song from Mario rpg
Music composed by Yoko Shimomura

Any Feedback let me know please!

Tuning: EbAbDbGbBbEb



Track 1
     E  E  Q    E  E  E  E  Q       E  E  E  E  E  E  E  E   
E||--1--0--0---------------------|--------------------------|
B||-------------1--0--3--1-------|-----------0--1--0--1--3--|
G||-------------2-----------1----|--------2-----------2-----|
D||------------------------------|-----2--------------------|
A||--------0---------------------|--2-----------0-----------|
D||-------------------------2----|--------------------------|


  E  E  Q    Q    Q    Q    E  E     E  E  Q    Q    Q    E  E  E   
-----0-----------------5-------3--|-----0--3----1----3-------------|
--4-----6----5----5---------2-----|--4----------3---------0--6-----|
-------------4--------------------|-----------------------------6--|
--0-------------------------------|--------0-----------------------|
-----------------------0----------|--------------------------------|
--------3-------------------------|------------------5-------------|


  E  Q    Q    Q    E  E  E  E     Q    E  E  E  E  E  E  E   
-----1----0----1-------0--------|--0-------------------------|
--3-------1---------------0--1--|-------3-----3--1-----------|
--------------------------------|-------4--4--------------1--|
--------------------------------|-------------------3--2-----|
-----3--------------0-----------|--2-------------------------|
---------------3----------------|-------------------2-----2--|


  E  E  E  E  E  E  E  E     E  E  Q    E  E  E  E  Q     
-----------------0-----1--|--1--0--0---------------------|
-----0--1--0--1-----4-----|--------1----1--0--3--1-------|
--2-----------------------|--------2----2-----------1----|
--------------------------|--------2----------------2----|
-----2-----2--------------|--------0----0-----------2----|
--------------------------|-------------------------2----|


  E  E  E  E  E  E  E  E     E  E  Q    Q    Q    Q    E  E   
--------------------------|-----0-----------------5-------3--|
-----------0--1--0--1--3--|--4-----6----5----5---------2-----|
--------2-----2-----2-----|-------------4--------------------|
-----2--------2-----------|--0-------------------------------|
--2-----------0-----0-----|------------------2----0----------|
--------------------------|--------3-------------------------|


  E  E  Q    Q    Q    E  E  E     E  Q    Q    Q    E  E  E  E   
-----0--3----1----3-------------|-----1----0----1-------0--------|
--4----------3---------0--6-----|--3--0----1----0----------0--1--|
--------2----2---------------6--|-----0---------2----------------|
--------------------------------|--------------------------------|
--------------------------------|-----3----3---------0-----------|
--------0----0----5-------------|---------------3----------------|


  Q    E  E  E  E  E  E  E     E  E  E  E  E  E  E  E     W                  
--0-------------------------|-----------------0-----1-0|-------------------||
--3----3-----3--1-----------|-----0--1--0--1-----4-----|-------------------||
--4----4--4--------------1--|--2--------2--------------|--2----------------||
--4----------------3--2-----|-----1--------------------|--2----------------||
--2-------------------------|-----2-----2--------------|--0----------------||
-------------------2-----2--|--------------------------|-------------------||
Login or Register to remove this ad.

4 comments on Sad Song

Thank you! It's awesome!

5

I really love this song, and finally someone made a great tab of it.
Thank you and congratulations for your work.

Great! im glad you like it :D

Great! im glad you like it :D

really nice !

5

really nice !

tuning

You have 2 different tunings