Ads

Let's Try (Super Mario RPG) Guitar Tab

Submitted: Aug 05, 2009 by Agahnim (Last updated: Feb 06, 2010)

5
Average: 5 (3 votes)
Download | Listen
Game: Super Mario RPG
Composer(s): Yoko Shimomura
Style: Arrangement, Fingerstyle
Series: Mario

AutoScroll: Slow | Medium | Fast
Let's Try
Super Mario RPG
Composed by: Yoko Shimomura
Arranged by: Ivo Koporcic
August 5, 2009

Note: TRIPLET FEEL ( 8th 8th => 8th. 16th )

     E  E  E  E  E  E  E  E     E  E  E  E  E   E   Q     
E||--5--------0--------0-----|--2------------------10----|
B||--------------------2-----|--------3--------10--------|
G||-----2--------------------|--------2--------11--------|
D||--------2-----------2-----|--0--------0---------------|
A||--0-----------0-----------|----------------------0----|
E||--------------------------|---------------------------|


  E  E  E  E  E  E  E  E     E  E  E  E  E  E  E  E   
--4-----------------------|--------------------------|
-----------7--------5-----|--------5-----------5-----|
--------4--------------6--|--------6--------6--------|
--------6-----------6-----|--------------------------|
-----------------------0--|-----0--------0-----7-----|
--0-----------0-----------|--------------------------|


  E  E  E  E  E  E  E  E     E  E  E  E  E   E   Q     
--5--------0--------0-----|--2------------------10----|
--------------------2-----|--------3--------10--------|
--------2-----------------|--------2--------11--------|
--------2-----------2-----|--0--------0---------------|
--0-----------0-----------|----------------------0----|
--------------------------|---------------------------|


  E  E  E  E  E  E  E  E     E  E  E  E  E  E  E  S S  
--4-----------------4--7--|--------5-----------0--7-8-|
-----------7--------------|--------5------------------|
--4-----4--------------6--|-----------------6---------|
-----6-----------6--------|---------------------------|
-----------------------0--|-----0--------0-----7------|
--0-----------0-----------|---------------------------|


  E  E  E  E  E  E  E  E     E   E  E   E  E  E  E  E   
--9--5-----0--------------|-----10-----10--------------|
--------------------6-----|--7-------------7-----------|
-----------6--------------|----------------7-----------|
--------------------------|--0------7------0-----7-----|
--0-----7-----0-----7-----|----------------------------|
--------------------------|----------------------------|


  |---3--|  |---3--|   |---3--|  |---3--|                              
  E  E   E  E   E  E   E  E   E  E   E  E     E  E  E  E  E  E  E  E   
--------14-----14-----14-----12-----10-----|--9--5--------------------|
--9------------10-----12-------------------|-----5-----7--5-----------|
--------13---------------------------------|-----6--------6-----------|
-------------------------------------------|--------------------------|
-------------------------------------------|--0-----7-----0-----7-----|
--0--------------------0---------0---------|--------------------------|


  E  E  E  E  E  E  E  E     E   E  E   E  E  E  E  E   
--9--5-----0--------------|-----10-----10--------------|
--------------------6-----|--7-------------7-----------|
-----------6--------------|----------------7-----------|
--------------------------|--0------7------0-----7-----|
--0-----7-----0-----7-----|----------------------------|
--------------------------|----------------------------|


  |---3--|  |---3--|   |--3--|  |---3--|                                      
  E  E   E  E   E  E   E  E  E  E   E  E      E  E  E  E  E  E  E  E          
--------10-----10-----10-----9------------|------------------0--5-----||
--9------9-----10-----12-----------12-----|--10-----------------------||
------------------------------------------|---9-----------------------||
------------------------------------------|---------7-----------------||
------------------------------------------|---0--------0-----0--------||
--0--------------------0--------0---------|---------------------------||


Duration Legend
---------------
H - half
Q - quarter
E - 8th
S - 16th
|-n-|  - n-tuplets
Login or Register to remove this ad.