Ads

Here's Some Weapons (Super Mario RPG) Guitar Tab

Submitted: Nov 20, 2010 by Chosen One 41 (Last updated: Nov 20, 2010)

5
Average: 5 (1 vote)
Download | Listen
Game: Super Mario RPG
Composer(s): Yoko Shimomura
Style: 2 or more instruments, Transcription
Series: Mario

AutoScroll: Slow | Medium | Fast
Title: Here's Some Weapons
Game: Super Mario RPG
Platform: Super Nintendo
Author: Yoko Shimomura
Tabber: Chosen One 41
Created On: 20/11/2010


Track 1: Gtr1

E|--------|-------------------|-9------------------------------|------------------------------|
B|--------|------------9-11-12|-------9--------9--12------11-12|-11---11-9----------9---------|
G|--------|-------------------|----------12--------------------|-----------12----12-----------|
D|--------|-------------------|--------------------------------|------------------------------|
A|--------|-------------------|--------------------------------|------------------------------|
E|--------|-------------------|--------------------------------|------------------------------|


E|-9------------------------------|-9-----9----------------------|-------------------------------|
B|-------9--------9--12------11-12|---------12-11---12-9---------|-------------------------------|
G|----------12--------------------|------------------------------|-8--9--8--7--------------------|
D|--------------------------------|------------------------------|----------------8--11---9------|
A|--------------------------------|------------------------------|-------------------------------|
E|--------------------------------|------------------------------|-------------------------------|


E|----------------------------------|-14-----------------------------|-----------------------------|
B|--------------------------14-16-18|-------14-------14-17------16-17|-16---16-14---------14-------|
G|-------------9--8--7--------------|----------17--------------------|-----------17----17----------|
D|----6--8--9-----------------------|--------------------------------|-----------------------------|
A|----------------------------------|--------------------------------|-----------------------------|
E|----------------------------------|--------------------------------|-----------------------------|


E|-14-----------------------------|-14----14--------------------|-------------------------------------|
B|-------14-------14-17------16-17|---------17-16---17-14-------|-9--10-9--8-----------9--------------|
G|----------17--------------------|-----------------------------|----------------8--11----11-9--------|
D|--------------------------------|-----------------------------|----------------------------------11-|
A|--------------------------------|-----------------------------|-------------------------------------|
E|--------------------------------|-----------------------------|-------------------------------------|


E|-------------------------------|-9----------------------------------|--------------------------9--------|
B|-------------------8----9------|-------9--------9--12-----11---10---|-9--10-9------------------9--------|
G|-------------8--9--------------|----------12------------------------|----------11-9--8------------------|
D|-------9--11-------------------|------------------------------------|-------------------11--------------|
A|-12----------------------------|------------------------------------|-----------------------------------|
E|-------------------------------|------------------------------------|-----------------------------------|





Track 2: Gtr2

E|-------------------------------|-------------------------------|-----------------------------|
B|-------------------------------|-------------------------------|-----------------------------|
G|--------6-----6---------6------|--------6-----6---------6------|--------6-----6-------6------|
D|--------6-----6---------6------|--------6-----6---------6------|--------6-----6-------6------|
A|-4-----------------------------|-4-----------------------------|-4---------------------------|
E|-----------------4-------------|-----------------4-------------|-----------------4-----------|


E|-----------------------------|-----------------------------|-----------------------------|
B|-----------------------------|-----------------------------|-----------------------------|
G|--------6-----6-------6------|--------6-----6-------6------|--------6-----6-------6------|
D|--------6-----6-------6------|--------6-----6-------6------|--------6-----6-------6------|
A|-4---------------------------|-4---------------------------|-4---------------------------|
E|-----------------4-----------|-----------------4-----------|-----------------4-----------|


E|-------------------------------|-----------------------------|------------------------------------|
B|-------------------------------|-----------------------------|----------1---------------1---------|
G|-------------------------------|-----------------------------|----------1---------------1---------|
D|-------------------------------|-----------------------------|------------------------------------|
A|-6--7--6--5--------------------|-------------7--6--5---------|------------------------------------|
E|----------------6--9----7------|----4--6--7------------------|-2-----2--------2--2---2--------2---|


E|------------------------------------|------------------------------------|----------------------------------|
B|---------------------------1--------|----------1---------------1---------|----------------------------------|
G|---------------------------1--------|----------1---------------1---------|---------------------------1------|
D|------------------------------------|------------------------------------|---------------------------1------|
A|------------------------------------|------------------------------------|----------------------------------|
E|-2-----2---2-----2--2---2--------2--|-2-----2--------2--2---2--------2---|-2-----2---2-----2--2---2---------|


E|-------------------------------|-----------------------------|-------------------------------|
B|-------------------------------|-----------------------------|-------------------------------|
G|-------------------------------|-----------------------------|-------------------------------|
D|--------6-----6---------6------|-----------------------------|--------6-----6---------6------|
A|-4---------------4-------------|--------7-----7-------6------|-4---------------4-------------|
E|-------------------------------|-5---------------4-----------|-------------------------------|


E|---------------------------------|
B|--------------------------2------|
G|---------------------------------|
D|---------------------------------|
A|-------------------4-------------|
E|-4-----4--2-----2----------------|
Login or Register to remove this ad.