Ads

Here's Some Weapons (Super Mario RPG) Guitar Tab

Submitted: Apr 17, 2009 by Agahnim (Last updated: Feb 03, 2010)

3
Average: 3 (2 votes)
Download | Listen
Game: Super Mario RPG
Composer(s): Yoko Shimomura
Style: Arrangement, Fingerstyle
Series: Mario

AutoScroll: Slow | Medium | Fast

Here's Some Weapons
Super Mario RPG
Composed by: Yoko Shimomura
Arranged by: Ivo Koporcic
April 17, 2009

DROP-D Tuning
Capo on 4

      S E  S S S S E  S E     S E  S S S S E  S T T  T  T  
G#||-----------------------|----------------------0h-2h-3-|
D#||-----------------------|------------------------------|
B ||-------2---2------2----|-------2---2------2-----------|
F#||-------2---2------2----|-------2---2------2-----------|
C#||--0--------------------|--0---------------------------|
F#||-------------2---------|-------------2----------------|


  S S S S S S E.  S S T  T    S S T  T S S S E.  S E   
--5---0-------3-------2h-3-|--2---2p-0----------------|
--------4---5--------------|-----------4---4-5--------|
--------2---2-----2--------|-----------2---2-----2----|
--------2---2-----2--------|-----------2---2-----2----|
--0------------------------|--0-----------------------|
--------------2------------|-----------------2--------|


  S S S S S S E.  S S T T    S S T  T S S S E.  S E     S S S S S S E.  S E   
--5---0-------3-------2-3-|--5---5p-3-2---3----------|-----------------------|
--------4---5-------------|-----------------5--------|-----------------------|
--------2---2-----2-------|-----------2---2-----2----|--4-5-4-3-----2--------|
--------2---2-----2-------|-----------2---2-----2----|------------4-----5----|
--0-----------------------|--0-----------------------|--2-3-2-1-----0--------|
--------------2-----------|-----------------2--------|------------4-----5----|

                                |-------| <-- this part of the melody can be played with the pinkie
                                              to fall easily on the next chord 
  S S S S S S E.  S T T  T  T     S S  S S S S S S S S S T  T  
----------------------5h-7h-9-|--10----------5-8---------7h-8-|
------------------------------|-------10-9--------------------|
----------5-4-3---------------|-------------------------------|
----2-4-5---------------------|----------6-----------6--------|
----------3-2-1---------------|----------7-----------7--------|
----2-4-5---------------------|---0----0-----0-0---0-----0----|


  S S T  T S S S S S S S S S     S S  S S S S S S S S S T  T  
--7---7p-5-4---4-5-----------|--10----------5-8---------7h-8-|
-----------------------------|-------10-9--------------------|
-----------------------------|-------------------------------|
-----------------------6-----|----------6-----------6--------|
-----------------------7-----|----------7-----------7--------|
--0---0----0---0-0---0-----0-|---0----0-----0-0---0-----0----|


   S S  T  T S S S S S S E  S    S S S S S S S S S S S S  
--10---10p-8-7---8-5----------|--0-1-0---------0---------|
------------------------------|--------4---0-3---3-1-----|
------------------------------|------------------------2-|
-------------------------2----|--------2---2-------2-----|
-------------------------2----|--0-----------0-----------|
---0----0----0---0-0---0------|--------------------------|


  S S S S S S E.  S E     S S S S S S S S S S T S T    S S S S S S S E  S E    
------------------0----|--5---0-----0-3-----2---1---|--0-1-0------------5----||
----------0-1-4--------|--------4-------------------|--------3-1-0------5----||
------0-2--------------|----------------------------|--------------2---------||
--3--------------------|--------2---2-------2-------|-------------------7----||
--------3---3-----2----|--0-----------0-------------|--------------0---------||
--3-----------2--------|----------------------------|--2---2-0---0-----------||

Duration Legend
---------------
H - half
Q - quarter
E - 8th
S - 16th
T - 32nd
. - note dotted

Tablature Legend
----------------
h - hammer on
p - pull off

Login or Register to remove this ad.

5 comments on Here's Some Weapons

Ahahaha, good stuff. This

Ahahaha, good stuff.

This site is in need of moar mario rpg as well.

Hehe, Mario RPG mini-project?

Hehe, Mario RPG mini-project? :-)

Hell yes.

Hell yes.

This song tickles me in ways

This song tickles me in ways I don't understand :)

pure fun

hehe i havent found such a great enjoyable song like this in a long time quite the gem if u tell me lol