Ads

Hello, Happy Kingdom (Super Mario RPG) Guitar Tab

Submitted: Apr 28, 2009 by Agahnim (Last updated: Feb 03, 2010)

4.666665
Average: 4.7 (3 votes)
Download | Listen
Game: Super Mario RPG
Composer(s): Yoko Shimomura
Style: Arrangement, Fingerstyle
Series: Mario

AutoScroll: Slow | Medium | Fast

Hello, Happy Kingdom
Super Mario RPG
Composed by: Yoko Shimomura
Arranged by: Ivo Koporcic
April 27, 2009

     S S S S S S S S S S S S S S S S      S S S S S S S S S S S S S S S S  
E||----------------------------------||-------1---1-----------------------|
B||----------------------------------||---1-----------1---3---1---1-------|
G||----------------------------------||*------------------------3-----2---|
D||----------------------------------||*----------------------------------|
A||------3-------3-------3-------3---||-------3-------3-------3-------3---|
E||--1-------1-------1-------1-------||---1-------1-------1-------1-------|


  S S S S S S S S S S S S S S S S    S S S S S S S S S S S S S S S S  
----------------------------------|------1---1-----------------------|
--------------------------1-------|--1-----------1---3---1---1-------|
--3---2-0-2-----------0-------0---|------------------------3-----2---|
--------------3---2---------------|----------------------------------|
------3-------3---3-------3-------|------3-------3-------3-------3---|
--1-------1-----------------------|--1-------1-------1-------1-------|


  S S S S S S S S S S S S S S S S    S S S S S S S S S S S S S S S S  
----------------------------------|----------------------------------|
--------------------------1-------|----------------------------------|
--3---2-0-2-----------0-------0---|----------------------------------|
--------------3---2-------------0-|--2---3-5-2-------2---3-5-2-------|
------3-------3---3-------3---3---|--------------3---------------3---|
--1-------1-----------------------|--0-------0---3---0-------0---3---|


  S S S S S S S S S S S S S S S S    S S S S S S S S S S S S S S S S  
----------------------------------|----------------------------------|
------------------1---------------|----------------------------------|
----------------------3-2-0-2-0---|----------------------------------|
--2---3-5-2---------------------3-|--2---3-5-2-------2---3-5-2-------|
--------------3---3-----------3---|--------------3---------------3---|
--0-------0---3---0-------0-------|--0-------0---3---0-------0---3---|


  S S S S S S S S S S S S S S S S    S S S S S S S S S S S S S S S S  
----------------------------------|------1---1-----------------------|
------------------1---------------|--1-----------1---3---1---1-------|
------------------------3-2-0-----|------------------------3-----2---|
--2---3-5-2-------------------0-2-|----------------------------------|
--------------3---3---------------|------0-------0-------0-------0---|
--0-------0---3---0-------0---3---|--1-------1-------1-------1-------|


  S S S S S S S S S S S S S S S S    S S S S S S S S S S S S S S S S  
----------------------------------|------1---1-----------------------|
--------------------------1-------|--1-----------1---3---1---1-------|
--3---2-0-2-----------0-------0---|------------------------3-----2---|
--------------3---2---------------|----------------------------------|
------0-------0---3---------------|------0-------0-------0-------0---|
--1-------1-----------3---0---3---|--1-------1-------1-------1-------|


  S S S S S S S S S S S S S S S S    S S S S S S S S S S S S S S S S  
----------------------------------|----------------------------------|
--------------------------1-------|----------------------------------|
--3---2-0-2-----------0-----------|--0---5---5---0---2---0---0-------|
--------------3---2-----------2-3-|------------------------3-----2---|
------0-------0---3---------------|--3-------------------------------|
--1-------1-----------3---0---3---|----------------------------------|


  S S S S S S S S S S S S S S S S    S S S S S S S S S S S S S S S S  
----------------------------------|------1---1-----------------------|
----------------------------------|--1-----------1---3---1---1-------|
--5-----------0-----------5---6---|------------------------3-----2---|
------8-7-8-------7---8-----------|----------------------------------|
--6-------------------------------|----------------------------------|
----------------------------------|--1-------------------------------|


  S S S S S S S S S S S S S S S S    S S S S S S S S S S S S S S S S  
--7---5-3-5-----------------------|----------------------------0-1-3-|
--------------6---3---------------|----------------------0-1-3-------|
------------------0---------------|--0---------------0-2-------------|
----------------------3-2-3---0---|--0---------------------------0---|
----------------------------------|------3-2-3---0-------------------|
--3-------------------------------|------------------3-------3-------|


  S S S S S S S S S S S S S S S S    S S S S S S S S S S S S S S S S  
--3-------------------------------|----------------------------------|
------6-5-6---3---5---------------|--3---5-6-5---3-------------------|
----------------------5-------5---|------------------5---2---0-------|
------5-------5-------5---5---5---|----------------------2-------2---|
--3-------3-------3-------3-------|------5-------5---3-------3-------|
----------------------------------|--3-------3-----------------------|


  S S S S S S S S S S S S S S S S    S S S S S S S S S S S S S S S S  
--3-------------------------------|----------------------------------|
------6-5-6-------5---------------|--3---6---5---3---1---------------|
--------------7-------5-------5---|----------------------------------|
------5-------5-------5---5---5---|----------------------2-------2---|
--3-------3-------3-------3-------|------5-------5---3-------3-------|
----------------------------------|--3-------3-----------------------|


  S S  S  S  S S S S  S S  S S  S S  S S    S S S S S S S S S S S S S S S S  
--8--------------------------------------|--3---5-6-5---3-------------------|
------11-10-11---8---10------------------|------------------6---3-----------|
--------------------------10--------10---|--------------------------5-------|
-------------------------------10--------|------------------3-------3-------|
--8----------8--------8---------8--------|--3-------3-----------3-------3---|
-------8---------8---------8---------8---|------3-------3-------------------|


  S S  S  S  S S S S  S S  S S  S S  S S    S S S S S S S S S S S S S S S S    
--8--------------------------------------|--3---6---5---3---------3-5--------||
------11-10-11---8---10------------------|------------------6---6------------||
--------------------------10--------10---|----------------------------------*||
-------------------------------10--------|------------------3-------3-------*||
--8----------8--------8---------8--------|--3-------3-----------3-------3----||
-------8---------8---------8---------8---|------3-------3--------------------||


Duration Legend
---------------
W - whole
H - half
Q - quarter
E - 8th
S - 16th

Login or Register to remove this ad.

2 comments on Hello, Happy Kingdom

Ahhh! Every time I hear a

Ahhh! Every time I hear a SMRPG song, I'm filled with a happiness and joy I don't understand :)

Love it :)

5 stars

whoever didnt give this 5 stars either made a mistake, is a bad guitar player, or possibly mentally handicapped...nice tab