Ads

Forest Maze (Super Mario RPG) Guitar Tab

Submitted: May 10, 2014 by Sage

5
Average: 5 (5 votes)
Download | Listen
Game: Super Mario RPG
Composer(s): Yoko Shimomura
Style: 2 or more instruments, Transcription
Series: Mario

AutoScroll: Slow | Medium | Fast
Tabbed By Sage


Intro
e|----------|
B|-9-7------|
G|-----9-8--|
D|----------|
A|----------|
E|----------|

Main Melody

e|------------9--7-----6h7p6---7----6-7--6------------------------------|
B|-------7-9--------9-------------9--------7-------------------7--------|
G|-6-8-9-------------------------------------8--9--8h9p8-6-8-9---9--8-9-|
D|----------------------------------------------------------------------|
A|----------------------------------------------------------------------|
E|----------------------------------------------------------------------|

e|----------------------------------------------------------------------|
B|-7---------7-------------7----7-9-------------------------------------|
G|----9-8-6-----9-8-6--8-9----9-----------------------------------------|
D|----------------------------------------------------------------------|
A|----------------------------------------------------------------------|
E|----------------------------------------------------------------------|

e|------------9--7-----6h7p6---7----6-7--6------------------------------|
B|-------7-9--------9-------------9--------7-------------------7--------|
G|-6-8-9-------------------------------------8--9--8h9p8-6-8-9---9--8-9-|
D|----------------------------------------------------------------------|
A|----------------------------------------------------------------------|
E|----------------------------------------------------------------------|

e|----------------------------------------------------------------------|
B|-7---------7-------------7----7-9-------------------------------------|
G|----9-8-6-----9-8-6--8-9----9-----------------------------------------|
D|----------------------------------------------------------------------|
A|----------------------------------------------------------------------|
E|----------------------------------------------------------------------|

Guitar 1
e|-------------------------------------------------|
B|----------14----------14----------14----------14-|
G|-------13----------13----------13----------13----|
D|-13-14-------13-14-------13-14-------13-14-------|
A|-------------------------------------------------|
E|-------------------------------------------------|

e|-------------------------------------------------|
B|----------12----------12----------12----------12-|
G|-------11----------11----------11----------11----|
D|-11-12-------11-12-------11-12-------11-12-------|
A|-------------------------------------------------|
E|-------------------------------------------------|

e|-----7-9-----7-9-----7-9-----7-9-----------------|
B|-6-9-----6-9-----6-9-----6-9---------------------|
G|-------------------------------------------------|
D|-------------------------------------------------|
A|-------------------------------------------------|
E|-------------------------------------------------|

e|-----7-9-----7-9-----7-9-----7-9-----------------|
B|-6-9-----6-9-----6-9-----6-9---------------------|
G|-------------------------------------------------|
D|-------------------------------------------------|
A|-------------------------------------------------|
E|-------------------------------------------------|

Guitar 2

e|-------------------------------------------------|
B|-------------------------------------------------|
G|--6--6--4----------------------------------------|
D|--6--6--4--7--6--6--4--2-------------------------|
A|-----------7--6--6--4--2--4~---------------------|
E|--------------------------4~---------------------|

e|-------------|
B|-14-12-------|
G|-------14-13-|
D|-------------|
A|-------------|
E|-------------|

e|-----------------14--12------11h12p11---12-----11-12--11-------------|
B|----------12-14----------14-----------------14-----------12----------|
G|-11-13-14---------------------------------------------------13--14---|
D|---------------------------------------------------------------------|
A|---------------------------------------------------------------------|
E|---------------------------------------------------------------------|

e|---------------------------------------------------------------------|
B|--------------------12-----------12-------------12-------------------|
G|13h14p13---11-13-14----14--13-14-----14-13-11-------14-13-11--13-14--|
D|---------------------------------------------------------------------|
A|---------------------------------------------------------------------|
E|---------------------------------------------------------------------|

e|---------------|
B|12-----12-14---|
G|----14---------|
D|---------------|
A|---------------|
E|---------------|

e|--------------------------------------------------------------------------|
B|-------------------10--9--------------------------------------------------|
G|---------------11--------11-9------11--9----------------------------------|
D|---------9-11------------------11--------12-11--9--------------9--8~------|
A|-9-11-12-------------------------------------------12--11--12-------------|
E|--------------------------------------------------------------------------|

e|-----------------14--17--16-14-12------14--12-------------------------------------|
B|----------12-14--------------------14---------15-14--12--------------12--11--14~~-|
G|-11-13-14------------------------------------------------14--13--14---------------|
D|----------------------------------------------------------------------------------|
A|----------------------------------------------------------------------------------|
E|----------------------------------------------------------------------------------|

e|-----------------14------------------14------------------14---------------------|
B|-------11-12-14------------11-12-14------------11-12-14------------11-12--------|
G|-11-13---------------11-13---------------11-13---------------11-13-----------14-|
D|-------------------------------------------------------------------------14-----|
A|--------------------------------------------------------------------------------|
E|--------------------------------------------------------------------------------|
Login or Register to remove this ad.

2 comments on Forest Maze

Nice Tab

5

I think this tab is awesome!
I've seen that this is the first you uploaded, continue the good work!

Thank you for the wonderful

Thank you for the wonderful complement! I am currently working on more and have one waiting to be approved by and admin.