Forest Maze (Super Mario RPG) Guitar Tab

Submitted: Apr 27, 2014 by JordanVS

5
Average: 5 (7 votes)
Download | Listen
Game: Super Mario RPG
Composer(s): Yoko Shimomura
Style: Arrangement, Fingerstyle
Series: Mario

This song is also called Beware the Forest's Mushrooms

AutoScroll: Slow | Medium | Fast
Forest Maze                                             
Beware the Forest's Mushrooms
Super Mario RPG: Legend of the Seven Stars
Yoko Shimomura
JordanVS

*Capo on the 4th fret
*Drop D Tuning (D - A - D - G - B - e)
-4/4
-Tempo : 94



     S S S S E  E  E  E  T  T  E.     E  S S E  S S E  E  T  T  E.     S S S S E  S S E  S S Q     
E||----------0--5--3--0--2h-3p-2---|--3--0-2-3--2-------------------|-----------------------------|
B||----0-1-3-----------------------|--------------3-0--1--0h-1p-0---|----0-1-3-1--0-1-3--1-0------|
G||--2-----------------------------|---------0------------0---------|--2---------------------2----|
D||----------2-----------0---------|----------------0---------------|-----------------------------|
A||--0-------------0---------------|--3-----------------------------|----------3-------------3----|
D||--------------------------------|--------------------------------|--3--------------3-----------|


  E  S S E  S S E  S S Q       S S S S E  E  E  E  T  T  E.     E  S S E  S S E  E  T  T  E.   
-----------------------0----|----------0--5--3--0--2h-3p-2---|--3--0-2-3--2-------------------|
--3--1-0----0-1-3--1-3------|----0-1-3-1--5--5--1--3-----L---|--1------5----3-0--1--0h-1p-0---|
---------2------------------|--2-----------------------------|--0------0---------2--0h-2p-0---|
---------0-------------2----|--2-------2-----------0---------|----------------4---------------|
----------------------------|--0-------------0---------------|--3-------------5---------------|
--5-------------5-----------|--------------------------------|--------------------------------|


  S S S S E  S S E  S S Q       E  S S E  S S E  S S Q       S S S S S S S S S S S S S S S S  
-----------------------------|-----------------------0----|------0-5-----0-5-----0-5-----0-5-|
----0-1-3-1--0-1-3--1-0------|--3--1-0----0-1-3--1-3-0----|--0-1-----0-1-----0-1-----0-1-----|
--2-------2------4------2----|--0------2------0-----------|--2---------------0---------------|
--3---------------------3----|---------0-------------2----|--------------------------3-------|
----------3-------------3----|----------------------------|----------------------------------|
--3--------------3-----------|--5-------------5-----------|----------------------------------|


  S S S S S S S S S S S S S S S S    S S S S S S S S S S S S S S S S  
--------3-------3-------3-------3-|----0-3-5---0-3-5---0-3-5---0-3-5-|
------3-------3-------3-------3---|--2-------2-------2-------2-------|
--2-3-----2-3-----2-3-------3-----|----------------------------------|
--2---------------0-------7-------|----------------------------------|
--------------------------3-------|--1-------------------------------|
----------------------------------|----------------------------------|


  S S S S S S S S S S S S S S S S    S S S S E  E  E  E  T  T  E.   
----0-3-5---0-3-5---0-3-5---------|--------------------------------|
--2-------2-------2-------2-------|-------------3--1-----0h-1p-0---|
--------------------------2-0-----|--------0-2--------2--0---------|
------------------------------3-2-|--0-2-3---------0---------------|
--0-------------------------------|----------0---------------------|
----------------------------------|--0-----------------------------|


  E  S S E  S S E  E  T  T  E.     S S S S E  S S E  S S Q       E  S S E  S S E  S S S S S S  
--------------------------------|-----------------------------|-------------------------------|
--1----0-1--0-------------------|-----------------------------|-------------------------------|
-----2--------0-----------------|--------0--------0-----------|--0-------------0----0-2-0-----|
----------------2--3--2h-3p-2---|--0-2-3---3--2-3----3-2-0----|-----3-2-0--2-3----3-------3-2-|
---------3------------3---------|--1--------------1-----------|--3-------------3------0-------|
--3-------------5---------------|----------3-------------3----|---------5---------------------|


  S S S S E  E  E  S S E  E     E  S S E  E  E  E  E  E     Q    Q    Q    Q     
----------------1--0---------|---------------------------|-----------------0----|
-------------3-------3-1-----|--3--1---------------------|------------3---------|
--------0-2---------------2--|-------3-2--0-----------0--|--2-------------------|
--0-2-3---------0------------|---------3-----3--2--3-----|------------0---------|
----------0------------3-----|--1------------0-----------|-------0---------3----|
--0--------------------------|---------------------2-----|--0-------------------|

											*Da Capo
  Q    E  E  E  E  E  E     S S S S E  E  S S S S E  E     S S S S E  E  S S S S S S S S  
--1-------0-----------0--|------------------------------|--------------------------------|
-------------3--2--3-----|--3-----L----3--------L----3--|--------L----3--------L---------|
-------------------------|--------0-2-----------0-2-----|--------0-2-----------0---------|
-------3-----------2-----|--0-2-4---------0-2-4---------|--0-2-4---------0-2-4---2-0-----|
--1----------0-----------|----------0-------------0-----|----------0-------------0---3-2-|
-------------------------|--0-------------0-------------|--0-------------0---------------|


  W                  
-------------------||
-------------------||
-------------------||
-------------------||
--0----------------||
-------------------||




Duration Legend
---------------
W - whole
H - half
Q - quarter
E - 8th
S - 16th
T - 32nd
X - 64th
. - note dotted
|-n-|  - n-tuplets


Tablature Legend
----------------
L - tied note
h - hammer on
p - pull off
^ - brush up
v - brush down
Login or Register to remove this ad.