Ads

Booster Tower (Super Mario RPG) Guitar Tab

Submitted: Jan 18, 2014 by JordanVS

5
Average: 5 (4 votes)
Download | Listen
Game: Super Mario RPG
Composer(s): Yoko Shimomura
Style: 2 or more instruments, Arrangement, Fingerstyle
Series: Mario

This song is also called Welcome to Bukki Tower

AutoScroll: Slow | Medium | Fast
Booster Tower           
Welcome to Bukki Tower
Super Mario RPG: Legend of the Seven Stars
Yoko Shimomura
JordanVS

*4/4
*Tempo = 115

Guitar 1

-Drop D 
-Capo on the 3rd fret


     S  S E  E  E  E  E  E  E     Q    E  E  E  E  E  E     Q    E  E  E  E  E  E   
E||-------------------5-----8--|----------------5-----8--|----------------------7--|
B||--5p-3-5--------------------|--5----------L-----------|----------------6--------|
G||----------------------------|-------------------------|--7----------L-----------|
D||-------------2--2-----------|-------------------------|----------0--0-----------|
A||--0-------------------0-----|----------7--7-----------|-------------------------|
D||----------------------------|--5----------------5-----|--3----------------3-----|


  S  S E  E  E  Q    E  E     Q    E  E  E  E  E  E     E  E  E  E  Q    Q     
---------------------------|-------------------------|-----0-----1--0---------|
---------------------------|-------------0--------3--|--L----------------3----|
--7p-6-7----------------L--|--0-------2-----5--------|-----------0--0---------|
---------------------------|----------0--0-----------|------------------------|
-------------0--0----------|-------------------------|--2----------------2----|
--0------------------0-----|--5----------------5-----|------------------------|


  Q    E  E  Q    Q       Q    E  E  Q    Q       S  S E  E  E  E  E  E  E   
--0--------------------|-----------------------|-------------------5-----8--|
--1--------------------|--0----------3---------|--5p-3-5--------------------|
----------0--0---------|--1----------4---------|----------------------------|
-----------------------|-----------------------|-------------2--2-----------|
--3---------------3----|----------2--2---------|--0-------------------0-----|
-----------------------|--2---------------2----|----------------------------|


  Q    E  E  E  E  E  E     Q    E  E  E  E  E  E     S  S E  E  E  Q    E  E   
----------------5-----8--|----------------------7--|---------------------------|
--5----------L-----------|----------------6--------|---------------------------|
-------------------------|--7----------L-----------|--7p-6-7----------------L--|
-------------------------|----------0--0-----------|---------------------------|
----------7--7-----------|-------------------------|-------------0--0----------|
--5----------------5-----|--3----------------3-----|--0------------------0-----|


  Q    E  E  E  E  E  E     Q    E  E  E  E  E  E     Q    E  E  E  E  E  E   
-------------------------|-------------------------|-------------------------|
-------------------------|-------------------3--1--|--0-------------------3--|
--2-------0-----0--------|-------------1--2--------|----------2--4--2--------|
-------------4--------2--|--L----4-----------------|----------2--2-----------|
----------5--5-----------|----------2--2-----------|--0----------------------|
--5----------------5-----|--2----------------2-----|-------------------5-----|

								       Da Coda
                                                                 |--3-|  |-3|     
  Q    E  E  Q    Q       S  S E  E  E  Q    E  E     Q    E  E  Q    E  E  Q     
-----------------------|---------------------------|-----------------------------|
-------1-----0---------|--5p-3-5-------------------|--3----------3----------0----|
------------------2----|---------------------------|------------------5----------|
----------0--0---------|---------------------------|----------0--0---------------|
-----------------------|-------------3--3----------|-----------------------------|
--4---------------4----|--3------------------3-----|--5------------------5-------|

				D.C. al Coda    Coda

  Q    E  E  Q    Q       Q    E  E  Q    Q       W                  
-----------------------|--2----------1---------|-------------------||
-----------------------|--3----------1---------|-------------------||
--2--------------------|-----------------------|--2----------------||
----------2--2---------|-----------------------|-------------------||
--0---------------0----|----------0--0---------|--0----------------||
-----------------------|--0---------------0----|-------------------||


Guitar 2

-Capo on the 3rd fret


     E  E  E  E  E  E  E  E     E  E  E  E  E  E  E  E     E  E  E  E  E  E  E  E   
E||--------------5-----------|--------------3-----------|--------------1-----------|
B||--------5--------5--------|--------3--------3--------|--------3--------3--------|
G||-----5-----5--------5-----|-----4-----4--------4-----|-----2-----2--------2-----|
D||--7--------------------7--|--5--------------------5--|--3--------------------3--|
A||--------------------------|--------------------------|--------------------------|
E||--------------------------|--------------------------|--------------------------|


  E  E  E  E  E  E  E  E     E  E  E  E  E  E  E  E     E  E  E  E  E  E  E  E   
--------------5-----------|--------------3-----------|--------------------------|
--------6-----------------|--------3--------3--------|--------3-----3--------6--|
-----7-----7-----7--5--4--|-----4-----4--------4-----|-----4-----4-----4--------|
--7-----------------------|--5--------------------5--|--5-----------------5-----|
--------------------------|--------------------------|--------------------------|
--------------------------|--------------------------|--------------------------|


  E  E  E  E  E  E  E  E     E  E  E  E  E  E  E  E     E  E  E  E  E  E  E  E   
--------------3-----------|-----------4--7-----4--7--|--------------5-----------|
--------5--------5--------|--------5--------5--------|--------5--------5--------|
-----5-----5--------5-----|-----4--------------------|-----5-----5--------5-----|
--5--------------------5--|--6-----------------------|--7--------------------7--|
--------------------------|--------------------------|--------------------------|
--------------------------|--------------------------|--------------------------|


  E  E  E  E  E  E  E  E     E  E  E  E  E  E  E  E     E  E  E  E  E  E  E  E   
--------------3-----------|--------------1-----------|--------------5-----------|
--------3--------3--------|--------3--------3--------|--------6-----------------|
-----4-----4--------4-----|-----2-----2--------2-----|-----7-----7-----7--5--4--|
--5--------------------5--|--3--------------------3--|--7-----------------------|
--------------------------|--------------------------|--------------------------|
--------------------------|--------------------------|--------------------------|


  E  E  E  E  E  E  E  E     E  E  E  E  E  E  E  E     E  E  E  E  E  E  E  E   
--------------------------|--------------------------|--------------0-----------|
--------3-----3--0--------|--------------3--0--------|--0-----1--------1--0--1--|
--2--4-----4--------0-----|--------1-----------1-----|-----2-----2--------------|
-----------------------0--|--0--2-----2-----------2--|--------------------------|
--------------------------|--------------------------|--------------------------|
--------------------------|--------------------------|--------------------------|

									Da Coda
  E  E  E  E  E  E  E  E     E  E  E  E  E  E  E  E     E  E  E  E  E  E  E  E   
--------------------------|--------------0-----------|--------------------------|
--------0--1--3--1--0-----|--------1--------1--0-----|--------0-----3--0--------|
-----2-----------------2--|-----2-----2-----------0--|-----0-----0--------0-----|
--4-----------------------|--3-----------------------|--0--------------------0--|
--------------------------|--------------------------|--------------------------|
--------------------------|--------------------------|--------------------------|

     					D.C. al Coda   Coda
                                       
						        ^                  
  E  E  E  E  E  E  E  E     E  E  E  E  E  E  E  E     W                  
--------------0-----------|--------------2-----------|--5----------------||
--------1--------1--------|--------3--------3--------|--5----------------||
-----2-----2--------2-----|-----2-----2--------2-----|--5----------------||
--2--------------------2--|--4--------------------4--|-------------------||
--------------------------|--------------------------|-------------------||
--------------------------|--------------------------|-------------------||




Duration Legend
---------------
W - whole
H - half
Q - quarter
E - 8th
S - 16th
T - 32nd
X - 64th
. - note dotted
|-n-|  - n-tuplets


Tablature Legend
----------------
L - tied note
h - hammer on
p - pull off
^ - brush up
v - brush down
Login or Register to remove this ad.

1 comment on Booster Tower

great job !

5

This is another very good one ^^ Thanks