Steam Gardens (Wooded Kingdom) (Super Mario Odyssey) Guitar Tab

Submitted: Jul 10, 2018 by hggb156

4
Average: 4 (1 vote)
Download | Listen
Game: Super Mario Odyssey
Composer(s): Shiho Fujii, Naoto Kubo
Style: Transcription
Series: Mario

AutoScroll: Slow | Medium | Fast
      Q    Q.     E  E  E       Q    Q.     E  E  E     H        E  E  E  E   
E||------------------------|-------------------------|-----------------------|
B||------------------------|-------------------------|-----------------------|
G||*-----------------------|----------------7--------|-----------------------|
D||*-----------------5--7--|--7g9----9---------7--9--|--L--------------5--7--|
A||---------------7--------|-------------------------|--------------7--------|
E||------------------------|-------------------------|-----------------------|


    Q    Q.     E  E  E     H        E  E  E  E       Q    Q.     E  E  E     H        E  E  E  E   
-------------------------|-----------------------|-------------------------|-----------------------|
-------------------------|-----------------------|-------------------------|-----------------------|
----------------9--7-----|-----------------------|-------------------------|-----------------------|
--7g9----9------------9--|--L--------------5--7--|--7g9----9------7--5-----|--------------5--------|
-------------------------|--------------7--------|----------------------7--|--L--------------5--7--|
-------------------------|-----------------------|-------------------------|-----------------------|


  W                     H        E  E  E  E       Q    Q.     E  E  E     W                 
--------------------||-----------------------|-------------------------|-------------------|
--------------------||-----------------------|-------------------------|-------------------|
-------------------*||--------------------7--|--7g9----9------9--9--7--|--L----------------|
-------------------*||--------------7--9-----|-------------------------|-------------------|
--L-----------------||-----------------------|-------------------------|-------------------|
--------------------||-----------------------|-------------------------|-------------------|


  Q    Q.     E  E  E     H        E  E  E  E       Q    Q.     E  E  E     W                 
-----------------------|-----------------------|-------------------------|-------------------|
-----------------------|-----------------------|-------------------------|-------------------|
--7----7---------7-----|--------------------7--|--7g9----9------9--9--7--|--L----------------|
--------------9-----9--|--L-----------7--9-----|-------------------------|-------------------|
-----------------------|-----------------------|-------------------------|-------------------|
-----------------------|-----------------------|-------------------------|-------------------|


  Q    Q.     E  E   E     H        E  E  E  E     Q.     Q.     Q       H        E  E  E  E   
------------------------|-----------------------|---------------------|-----------------------|
------------------------|--------------------7--|--8------7-----------|--------------------7--|
--7----7---------7h--8--|--L--------------9-----|----------------9----|--L--------------9-----|
--------------9---------|--------------9--------|---------------------|--------------9--------|
------------------------|-----------------------|---------------------|-----------------------|
------------------------|-----------------------|---------------------|-----------------------|


  Q.      Q.     Q       H        E  E  E  E     Q.     Q.     Q       H        E  E  E  E   
-----------------7----|--L--------------------|---------------------|-----------------------|
--8------10-----------|--------------------7--|--8------7-----------|-----------------------|
----------------------|-----------------9-----|----------------9----|--L-----------7-----7--|
----------------------|--------------9--------|---------------------|-----------------9-----|
----------------------|-----------------------|---------------------|-----------------------|
----------------------|-----------------------|---------------------|-----------------------|


  W                   
--------------------||
--------------------||
--------------------||
--9~----------------||
--------------------||
--------------------||




Duration Legend
---------------
W - whole
H - half
Q - quarter
E - 8th
S - 16th
T - 32nd
X - 64th
. - note dotted
|-n-|  - n-tuplets


Tablature Legend
----------------
L - tied note
x - dead note
g - grace note
(n) - ghost note
> - accentuded note
NH - natural harmonic
AH - artificial harmonic
TH - tapped harmonic
SH - semi harmonic
PH - pitch harmonic
h - hammer on
p - pull off
b - bend
br - bendRelease
pb - preBend
pbr - preBendRelease
brb - bendReleaseBend
\n/ - tremolo bar dip
\n - tremolo bar dive
-/n - tremolo bar Release up
/n\ - tremolo bar inverted dip
/n - tremolo bar return
-\n - tremolo bar Release down
S - shift slide
s - legato slide
/ -  slide into from below or out of upwards
\ -  slide into from above or out of downwards
~ - vibrato
W - wide vibrato
tr - trill
TP - tremolo picking
T - tapping
S - slap
P - pop
< - fade in
^ - brush up
v - brush down
Login or Register to remove this ad.

1 comment on Steam Gardens (Wooded Kingdom)

Great job! I think this was a

4

Great job! I think this was a good tab and it would have been cool if you included the intro!