Ads

World 4 - Chai (Super Mario Land) Guitar Tab

Submitted: Sep 19, 2010 by Kabukibear (Last updated: Sep 03, 2022)

5
Average: 5 (11 votes)
Download | Listen
Game: Super Mario Land
Composer(s): Hirokazu Tanaka
Style: Arrangement, Fingerstyle, Percussion
Series: Mario

AutoScroll: Slow | Medium | Fast
World 4 - Chai                                  
~Super Mario Land~
Composed by: Hirokazu Tanaka
Arranged by: Justin Lincoln

Drop D Tuning

     S S E  E  E  E  E  Q         E  S S E  E  E  S S E  E   
E||--------------------------||-------------0--3------0-----|
B||--8-8-8--5--5--3--3--5----||---3-------------------------|
G||--7------4--4--2--2--4----||*-------0------------0----0--|
D||--------------------------||*-----0------------0---------|
A||--------------------------||-----------------------------|
D||--------------------------||---5------5-----5------5-----|


  E  S S E  E  E  S S E  E     E  S S E  E  E  S S E  E   
---------0------------------|------------0--3------0-----|
--3---------3--0------------|--3----------------------3--|
-------0------------0-2--0--|-------0------------0-------|
-----0------------0---------|-----0------------0---------|
--3------3-----3------3-----|----------------------------|
----------------------------|--5------5-----5------5-----|


  S S E  S S E  S S E  S S E     E  S S E  E  E  S S E  E   
--3-5-3--0-3-0----------------|------------0--3------0-----|
----------------3-5-3--0------|--3-------------------------|
-------------------------2-0--|-------0------------0----0--|
------------------------------|-----0------------0---------|
--3------3------3------3------|----------------------------|
------------------------------|--5------5-----5------5-----|


  E  S S E  E  E  S S E  E     E  S S E  E  E  S S E  E   
---------0------------------|----------------------------|
--3---------3--0------------|------------0---------------|
-------0------------0-2--0--|--2------------2--0---------|
-----0------------0---------|-------0------------0-2--0--|
--3------3-----3------3-----|-----0------------0---------|
----------------------------|--0------0-----0------0-----|


  E  S S E  E  E  S S E  E     E  S S E  E  E  S S E  E   
----------------------------|------------0--3------0-----|
----------------------------|--3-------------------------|
----------------------------|-------0------------0----0--|
--2----2----2-------2----2--|-----0------------0---------|
-----2------------2---------|----------------------------|
--2------2-----2------2-----|--5------5-----5------5-----|


  E  S S E  E  E  S S E  E     E  S S E  E  E  S S E  E   
---------0------------------|------------0--3------0-----|
--3---------3--0------------|--3----------------------3--|
-------0------------0-2--0--|-------0------------0-------|
-----0------------0---------|-----0------------0---------|
--3------3-----3------3-----|----------------------------|
----------------------------|--5------5-----5------5-----|


  S S E  S S E  S S E  S S E     E  S S E  E  E  S S E  E   
--3-5-3--0-3-0----------------|------------0--3------0-----|
----------------3-5-3--0------|--3-------------------------|
-------------------------2-0--|-------0------------0----0--|
------------------------------|-----0------------0---------|
--3------3------3------3------|----------------------------|
------------------------------|--5------5-----5------5-----|


  E  S S E  E  E  S S E  E     E  S S E  E  E  S S E  E   
---------0------------------|----------------------------|
--3---------3--0------------|------------0---------------|
-------0------------0-2--0--|--2------------2--0---------|
-----0------------0---------|-------0------------0-2--0--|
--3------3-----3------3-----|-----0------------0---------|
----------------------------|--0------0-----0------0-----|


  E  S S E  E  E  S S E  E     E  S S E  E  E  S S E  S S  
----------------------------|-----------------------------|
----------------------------|------------0--3------3--5-3-|
----------------------------|--2--------------------------|
--2----2----2-------2----2--|-------0------------0--------|
-----2------------2---------|-----0------------0----------|
--2------2-----2------2-----|--0------0-----0------0------|


  E  S S E  E  E  S S E  S S    E  S S E  E  E  S S E  E   
-----------------------------|----------------------------|
--0------3--0-----0----------|--3------------3---------0--|
-------0-------2----2-0------|-------0----0-------0-------|
-----0-------------------2-0-|-----0------------0---------|
--3------3-----3------3------|--2------2-----2------2-----|
-----------------------------|----------------------------|


                               ^                      ^                     
  E  S S E  E  E  S S E  E     Q.     E  Q    Q       Q.     E  Q    E  E   
----------------------------|--0------3--5----3----|--0--------------------|
--3-------------------------|--0-------------------|--1------3--0----------|
----------------------------|--0-------------------|--0--------------2--0--|
-------0----0-------0----0--|----------------------|-----------------------|
-----0------------0---------|----------------------|--3--------------------|
--0------0-----0------0-----|--2-------------------|-----------------------|

                         1st Ending ----------,    2nd Ending
  ^                      ^                         ^                  
  Q.     E  Q    Q       Q    Q    Q    E  E       W                  
-----------------0----|--3---------------------||--3----------------||
---------0--3---------|--0---------------------||--0----------------||
--2-------------------|-----------------------*||-------------------||
--0-------------------|------(X)----(X)--(X)--*||-------------------||
--0-------------------|------------------------||-------------------||
--0-------------------|--2-------(x)-----------||--2----------------||

                            


Duration Legend
---------------
W - whole
H - half
Q - quarter
E - 8th
S - 16th
T - 32nd
X - 64th
. - note dotted
|-n-|  - n-tuplets


Tablature Legend
----------------
^ - brush up
(X) - tap strings
(x) - tap body
1st Ending - jump to 2nd ending on repeat
Login or Register to remove this ad.

5 comments on World 4 - Chai

Great! :D

Great! :D

I agree!! I always loved

I agree!! I always loved this song ^-^

I nostalgia'd all over the

I nostalgia'd all over the goddamn chair.

Holy Crap

5

Holy Crap this song is great sounds just funny and tight like the old one love it keep it up kabuki love your tabs ^.^

Absolutely fantastic! Well

Absolutely fantastic! Well done Kabukibear you are incredible!!!!!!