Ads

Overworld Theme (Super Mario Land) Guitar Tab

Submitted: Jun 23, 2009 by auriplane (Last updated: Feb 04, 2010)

4.94737
Average: 4.9 (19 votes)
Download | Listen
Game: Super Mario Land
Composer(s): Hirokazu Tanaka
Style: Arrangement, Fingerstyle
Series: Mario

AutoScroll: Slow | Medium | Fast
                          Super Mario Land - Overworld Theme
                                  Song by Koji Kondo

                  Arranged & tabbed by auriplane ([email protected])

This song has a sixteenth note "triplet feel", so when you see sixteenths, the
rhythm is supposed to be bouncy XD  Listen to the MIDI if you don't know what
I mean.  Or the GP5, since I made one this time XD

I marked the grace notes with a "g".

Capo on 3, standard tuning.


 S S E   Q        E   E   S S S S E   E   S S S S  E   E   E   E   E   E   E   E
|----0-----------|--------------------------------|------------------------0---2---|
|----------------|2-------0-----2---------------0-|2---2---0-------2---3-----------|
|----------------|----------2---------------2-----|------------2-------0-------0---|
|--2-----2-------|----2-------2-------3-------3---|----4-------4-----------4-------|
|----------------|0-------4-------0-------4-------|0-------4-------0---------------|
|--------0-------|--------------------------------|--------------------------------|

 E   E   E   E   E   S S E   E    E   E   E   Q     g E   Q
|--------------------------------|------------------0h12--0-------|
|--------------------------------|--------------------------------|
|----2---2-----------2-2---------|------------1-------------------|
|----4-------4---2---2-------2---|0---2---4---2-------------------|
|5-------0---5---4-------0-------|2---4---5-----------------------|
|--------------------------------|--------------------------------|

 E   E   S S S S E   E   S S S S  E   E   E   E   E   E   E   S S
|--------------------------------|----------------2---0---5-------|
|2-------0-----2---------------0-|2---2---0-------------------2-0-|
|----------2---------------2-----|------------2-------0-------0---|
|----2-------2-------3-------3---|----4-------4-----------4-------|
|0-------4-------0-------4-------|0-------4-------0---------------|
|--------------------------------|--------------------------------|

 E   E   E   E   E   S S E   E    E   E   E   Q     g E   Q
|--------------------------------|------------------0h12--0-------|
|------------0---2---------------|3---2-------0-------------------|
|----2---2-----------2-2---------|--------2-----------------------|
|----4-------4-------2-------2---|--------0---2-------------------|
|5-------0-------4-------0-------|2---4---------------------------|
|--------------------------------|--------------------------------|

 E   E   E   E   E   S S E   E    E   E   S S E   E   E   E   E
|----2---4---5---4-----0---------|----2---0-----------------------|
|--------------------------------|3---------3-----2---3---4---5---|
|----2-------2-------2-------2---|--------------------------------|
|0-------0-----------------------|----4-------4-------------------|
|----------------4-------4-------|2-------2-------0---2---3---4---|
|--------------------------------|--------------------------------|

 E   E   E   E   E   S S E   S S  E   E   E   E   S S E   E   E    W
|----2---4---5---4-----0-------0-|8---7-------5---0-0-------------|-------|
|--------------------------------|--------------------3---2---0---|2------|
|----2-------2-------2-------2---|----5-------5-------------------|2------|
|0-------0-----------------------|3-------3-----------------------|2------|
|----------------4-------4-------|--------------------------------|0------|
|--------------------------------|--------------------------------|-------|
Login or Register to remove this ad.

6 comments on Overworld Theme

Great stuff ! =)

5

Great stuff ! =)

Nice Work! (:

5

Nice Work! (:

You're right- people only

5

You're right- people only comment on your guitar tabs/arrangements.

Tight.

5

Tight.

This is some delicious pie

This is some delicious pie you've cooked up.

nom nom nom

nom nom nom