Ads

Oh! Daisy (Super Mario Land) Guitar Tab

Submitted: Apr 03, 2011 by 60NCA10

5
Average: 5 (6 votes)
Download | Listen
Game: Super Mario Land
Composer(s): Hirokazu Tanaka
Style: Arrangement, Fingerstyle
Series: Mario

Click here for a video example.

AutoScroll: Slow | Medium | Fast



                         SUPER MARIO LAND
                           "Oh! Daisy"
                         (Daisy's Theme)


                Original song by: Hirokazu Tanaka

                  Fingerstyle Arrangement by:
                        Gonçalo Martins
                       September 23rd 2010





     1st Part:

     Q    Q    Q    Q       Q    Q    Q    E  E     Q    Q    Q    Q     
E||--7----L----5----3----|--7----L----L----3--5--|--7----7----5----3----|
B||-------0---------0----|------------3----------|-------0---------0----|
G||--0---------7---------|-------4---------4-----|------------7---------|
D||----------------------|--4--------------------|----------------------|
A||----------------------|-----------------------|--8-------------------|
E||----------------------|-----------------------|----------------------|


  Q    Q     Q     Q       Q     Q     Q     Q       Q    Q    Q    Q     
--7----8----10----12----|-------------------------|------------7----L----|
------------------------|--------8-----8----------|------------0---------|
-------0-----------0----|--------------------8----|--7----0---------0----|
------------10----------|-------------10----------|--0-------------------|
--7---------------------|--6----10----------10----|----------------------|
------------------------|-------------------------|----------------------|


  Q    Q    Q    Q       Q    Q    Q    Q      
--0----3----5----7----|--5----L--------------|
----------------------|------------3----L----|
------------0---------|--0-------------------|
-------2---------7----|------------4----0----|
--4-------------------|-------3--------------|
----------------------|----------------------|




   2nd Part:

     Q    Q    Q    Q       Q    Q    Q    E  E     Q    Q    Q    Q     
|--7----L----5----3----|--7----L----L----3--5--|--7----7----5----3----|
|-------0---------0----|------------3----------|-------0---------0----|
|--0---------7---------|-------4---------4-----|------------7---------|
|----------------------|--4--------------------|----------------------|
|----------------------|-----------------------|--8-------------------|
|----------------------|-----------------------|----------------------|


  Q    Q     Q     Q       Q     Q     Q     Q       Q    Q    Q    Q     
--7----8----10----12----|-------------------------|------------7----L----|
------------------------|--------8-----8----------|------------0---------|
-------0-----------0----|--------------------8----|--7----0---------0----|
------------10----------|-------------10----------|--0-------------------|
--7---------------------|--6----10----------10----|----------------------|
------------------------|-------------------------|----------------------|


  Q    Q    Q    Q       H        Q    Q      
--8----0--------------|---------------------||
------------7---------|--8------------------||
-------0---------7----|---------------------||
------------7---------|--9------------------||
--7--------------9----|---------------------||
----------------------|-----------3---------||




Duration Legend
---------------
H - half
Q - quarter
E - 8th


Tablature Legend
----------------
L - tied note

Login or Register to remove this ad.

3 comments on Oh! Daisy

grrrr who's buttin' in on my

grrrr who's buttin' in on my game!!!

sry but it´s not the

5

sry but it´s not the princess, she is in another castle

Fantastic

5

Fantastic