Ending (Super Mario Land) Guitar Tab

Submitted: May 18, 2017 by ILovePaper

0
Download | Listen
Game: Super Mario Land
Composer(s): Hirokazu Tanaka
Style: Arrangement, Fingerstyle
Series: Mario

AutoScroll: Slow | Medium | Fast
Tempo = 120
Nylon Guitar

Legend
L - tied note
x - dead note
h - hammer on/pull off
b - bend
s - slide
~ - vibrato
g - ghost note
> - accentuated note
t - trill
M - palm mute
. - staccato
P - popping (bass)
S - slapping (bass)
+ - tapping
W - wide vibrato
< - fade in
w - whammy bar
= - tremolo picking
v - brush up
^ - brush down
V - pick stroke up
n - pick stroke down


     E  E  E  E  E  E  E  E     E  E  E  E  E  E  E  E   
E||--0-----------------0-----|--2-----------------2-----|
B||--------------2-----------|--------0-----4-----------|
G||--------4--4--------4--4--|--------4--4--------4--4--|
D||--------------------------|--------------------------|
A||--2--2--------2--2--------|--2--2--------2--2--------|
E||--------------------------|--------------------------|


  E  E  E  E  E  E  E  E     E  E  E  E  E  E  E  E   
--3-----------0-----3-----|--5-----------2-----5-----|
--------1-----------------|--------3-----------------|
--------4--4--------4--4--|--------4--4--------4--4--|
--------------------------|--------------------------|
--2--2--------2--2--------|--2--2--------2--2--------|
--------------------------|--------------------------|


  E  E  E  E  E  E  E  E     E  E  E  E  E  E  E  E   
--7-----0-----4-----7-----|--8-----0-----5-----8-----|
--------------------------|--------------------------|
--------------------------|--------------------------|
--------------------------|--------------------------|
--------7--7--------7--7--|--------7--7--------7--7--|
--0--0--------0--0--------|--0--0--------0--0--------|


  E  E  E  E  E  E  E  E     E  E  E  E  E  E  E  E       Q    E  E  Q    Q     
--7-----0-----4-----7-----|--8-----0-----5-----8-----||---4-------0------------|
--------------------------|--------------------------||-------------------0----|
--------------------------|--------------------------||*-----------------------|
--------------------------|--------------------------||*--2----2-----2----2----|
--------7--7--------7--7--|--------7--7--------7--7--||------------------------|
--0--0--------0--0--------|--0--0--------0--0--------||------------------------|


  E  E  E  E  E  E  E  E     Q    Q    Q    Q       Q    Q    Q    Q     
-----2-----5-----4--2--0--|--L-------------------|----------------------|
--L-----------------------|----------------------|----------------------|
--------------------------|----------------------|----------------------|
--1-----1-----1-----1-----|--0----0----0----0----|----------------------|
--------------------------|----------------------|--4----4----4----4----|
--------------------------|----------------------|----------------------|


  Q    E  E  Q    Q       Q    Q    E  E  E  E     Q    Q    Q    Q     
--4-------0------------|--0---------------0--2--|--L-------------------|
------------------0----|---------------4--------|------------2---------|
-----------------------|------------------------|----------------------|
-----------------------|------------------------|----------------------|
--0----0-----0----0----|------------------------|----------------------|
-----------------------|--4----4----4-----4-----|--2----2----2----2----|


  Q    Q    Q    Q       Q    E  E  Q    Q       E  E  E  E  E  E  E  E   
----------------------|--4-------0------------|-----2-----5-----4--2--0--|
--4-------------------|------------------0----|--L-----------------------|
----------------------|-----------------------|--------------------------|
----------------------|--2----2-----2----2----|--1-----1-----1-----1-----|
--2----2----2----2----|-----------------------|--------------------------|
----------------------|-----------------------|--------------------------|


  Q    Q    Q    Q       Q    Q    Q    Q       Q    E  E  Q    Q     
--L-------------------|----------------------|--4-------0------------|
----------------------|----------------------|------------------0----|
----------------------|----------------------|-----------------------|
--0----0----0----0----|----------------------|-----------------------|
----------------------|--4----4----4----4----|--0----0-----0----0----|
----------------------|----------------------|-----------------------|


  Q    Q    E  E  E  E     Q    Q    Q    Q       Q    Q    Q    Q     
--0---------------0--2--|--L-------------------|----------------------|
---------------4--------|------------2---------|--4-------------------|
------------------------|----------------------|----------------------|
------------------------|----------------------|----------------------|
------------------------|----------------------|--2----2----2----2----|
--4----4----4-----4-----|--2----2----2----2----|----------------------|


  E  E  Q    E  E  E  E     E  E  Q    E  E  Q       E  E  Q    E  E  E  E   
--0-------------------0--|--2---------------------|--4----------------2--4--|
-------------------4-----|-------------0----------|-------------------------|
-------------------------|------------------------|-------------------------|
-------------------------|------------------------|-------------------------|
--0--0-------0--0--------|--0--0-------0--0-------|-------------------------|
-------------------------|------------------------|--4--4-------4--4--------|


  E  E  Q    E  E  Q       E  E  Q    E  E  E  E     E  E  Q    E  E  Q     
--5----------0----------|--0-------------------0--|--2---------------------|
--------2----------4----|-------------------4-----|-------------0----------|
------------------------|-------------------------|------------------------|
------------------------|-------------------------|------------------------|
-------------2--2-------|--0--0-------0--0--------|--0--0-------0--0-------|
--2--2------------------|-------------------------|------------------------|


  E  E  Q    E  E  E  E     E  E  Q    E  E  Q       E  E  Q    E  E  Q     
--4----------------2--4--|--7----------------3----|--5----------8----------|
-------------------------|--------0----3----------|------------------------|
-------------------------|------------------------|------------------------|
-------------------------|------------------------|------------------------|
-------------------------|------------------------|------------------------|
--4--4-------4--4--------|--3--3-------3--3-------|--3--3-------3--3-------|


  E  E  E  E  E  E  E  E     E  E  E  E  E  E  E  E       H        Q     
--4-----------------------|--2------------------------||----------------|
-----------0-----------0--|---------------------------||--4-------------|
--------1-----------1-----|--------------------------*||--4--------1----|
--2--2--------2--2--------|--------1--4--------1--4--*||--4--------2----|
--------------------------|--2--2--------2--2---------||--2--------2----|
--------------------------|---------------------------||-----------0----|

Login or Register to remove this ad.