Ads

Birabuto Kingdom (Super Mario Land) Ukulele Tab

Submitted: Oct 11, 2021 by ajarthur (Last updated: Oct 24, 2021)

0
Download | No audio :(
Game: Super Mario Land
Composer(s): Hirokazu Tanaka
Style: Fingerstyle, Natural harmonics
Series: Mario

AutoScroll: Slow | Medium | Fast
                  Super Mario Land – Level 1 Theme - Ukulele
Arranged - Alan Arthur based on the guitar tab by Manuel Gutierrez Rojas

Low G tuning

    E  E  S E. E. Q      E  E  S S S S E  E  E  S S   E  E  E  E  E  E   
---------------3-----||--0-----------0--------------|-0--0--------0--1--3--5--|
----8--7--6-5--------||*-------3-1-----0-----0--1-3-|-------3--1--0-----0-----|
----9--8--7-5-----0--||*----0------0------1-----1---|----2-----2-----3-----3--|
---------------------||-----------------------------|-------------------------|


 E  E  E  E  E  S S E  E   E  E  E  E  E  E   Q     E  E  S S S S E  E  E  S S  
-------------------------|------------------------|-0-----------0--------------|
----1--1----------1------|---------------<7>-<7>--|-------3-1-----0-----0--1-3-|
----2-----2--0--0------0-|----0--2--4----<5>-<5>--|----0------0------1-----1---|
-3-----3-----2------2----|-0--2--3--4-------------|----------------------------|


 E  E  E  E  E  E  E  S S  E  E  E  E   E  S S E  E   E  E  E  Q   E.  Q  
-0--0--------5-----8--0---|-------------0-----------|-1--0---------3------|
-------3--1--0--8---------|----1--1--3-------1------|-------1--3---7------|
----2-----2-------------7-|----2-----2-----0------0-|------------------0--|
----------------8--7--8---|-3-----3-----2------2----|-0--2--3--4-------4--|


 E  E  E  E  E  S S E  E   E  E  E  E  E  E  E  E   E  E  E  E  E  S S E  E     
----5--7--8--7----3------|-1-----3--1--0--1--2--3-|----5--7--8--7----3------|
-------------------------|-------------1--3--4--5-|-------------------------|
----5-----5-----5------5-|----2-----2-------------|----5-----5-----5------5-|
-3-----3-----2------2----|-0-----0----------------|-3-----3-----2------2----|


 E   E   E  E  S S  E  E  E  
-11--10-----8----------------||
-9-------9-----8-8--6--5----*||
-----8------8-------------7-*||
-----------------------------||
Login or Register to remove this ad.

1 comment on Birabuto Kingdom

Video

https://www.youtube.com/watch?v=1QLXYxu1Qx8