Wario's Castle (Super Mario Land 2) Guitar Tab

Submitted: May 03, 2010 by trickypat (Last updated: May 03, 2010)

0
Download | Listen
Game: Super Mario Land 2
Composer(s): Kazumi Totaka
Style: Arrangement, Fingerstyle
Series: Mario

AutoScroll: Slow | Medium | Fast
Wario's Castle
from Super Mario Land 2
composed by Kazumi Totaka
arranged by trickypat
TablEdited by trickypat
Date edited: 2010, April 26th

Drop-D tuning, no capo, bpm=130;

v1.00
Haunting music, but man, this castle was unforgiving. Still, great final world in this game. Measure 25
until 28 are improvised. The soundtrack has some drumming, but I felt adding those notes in such a way
so that it fills an otherwise annoying void. Keep repeating from start to finish. Happy playing!

Youtube link: http://www.youtube.com/watch?v=Z06NVdc1Le8

measure 1
    |       |       |       |          |       |       |       |          |       |       |       |         
E |----------------------------------|----------------------------------|----------------------------------|
B |-------------3---2----------------|----------------------------------|-1--------------------------------|
G |-0-----3-----3--------------------|----------------------------------|-----3----------------------------|
D |-0-----5---------2----------------|----------------------------------|-2---0----------------------------|
A |----------------------------------|----------------------------------|----------------------------------|
D |-0-----0-----0-----0-----0---0----|-0-----0-----0-----0-----0---0----|-0-----0-----0-----0-----0---0----|
 
measure 4
  |       |       |       |          |       |       |       |          |       |       |       |         
|----------------------------------|----------------------------------|----------------------------------|
|----------------------------------|-------------3---2----------------|----------------------------------|
|----------------------------------|-0-----3-----3--------------------|----------------------------------|
|----------------------------------|-0-----5---------2----------------|----------------------------------|
|----------------------------------|----------------------------------|----------------------------------|
|-0-----0-----0-----0-----0---0----|-0-----0-----0-----0-----0---0----|-0-----0-----0-----0-----0---0----|
 
measure 7
  |       |       |       |          |       |       |       |          |       |       |       |         
|-----4----------------------------|----------------------------------|-5-------------5-6-----------5----|
|-3--------------------------------|----------------------------------|-------------8-----------------8--|
|-4--------------------------------|----------------------------------|----------------------------------|
|----------------------------------|----------------------------------|----------------------------------|
|----------------------------------|----------------------------------|----------------------------------|
|-0-----0-----0-----0-----0---0----|-0-----0-----0-----0-----0---0----|-0-----0-----0-----0-----0---0----|
 
measure 10
  |       |       |       |          |       |       |       |          |       |       |       |         
|-5-------------5-6-----------5----|-5-----6-----5---4----------------|----------------------------------|
|-------------8-----------------8--|----------------------------------|----------------------------------|
|----------------------------------|----------------------------------|----------------------------------|
|----------------------------------|----------------------------------|----------------------------------|
|----------------------------------|----------------------------------|----------------------------------|
|-0-----0-----0-----0-----0---0----|-0-----0-----0-----0-----0---0----|-0-----0-----0-----0-----0---0----|
 
measure 13
  |       |       |       |          |       |       |       |          |       |       |       |         
|-----12---------------------------|----------------------------------|----------------------------------|
|----------------------------------|----------------------------------|----------------------------------|
|-12-------------------------------|----------------------------------|----------------------------------|
|----------------------------------|----------------------------------|----------------------------------|
|----------------------------------|----------------------------------|----------------------------------|
|-0-----0-----0-----0-----0---0----|-0-----0-----0-----0-----0---0----|-0-----0-----0-----0-----0---0----|
 
measure 16
  |       |       |       |         
|----------------------------------|
|----------------------------------|
|----------------------------------|
|----------------------------------|
|----------------------------------|
|-0-----0-----0-----0-----0---0----|

measure 17
  |       |       |       |          |       |       |       |          |       |       |       |         
|----------------------------------|----------------------------------|----------------------------------|
|-------------3---2----------------|----------------------------------|-1--------------------------------|
|-0-----3-----3--------------------|----------------------------------|-----3----------------------------|
|-0-----5---------2----------------|----------------------------------|-2---0----------------------------|
|----------------------------------|----------------------------------|----------------------------------|
|-0-----0-----0-----0-----0---0----|-0-----0-----0-----0-----0---0----|-0-----0-----0-----0-----0---0----|
 
measure 20
  |       |       |       |          |       |       |       |          |       |       |       |         
|----------------------------------|----------------------------------|----------------------------------|
|----------------------------------|-------------3---2----------------|----------------------------------|
|----------------------------------|-0-----3-----3--------------------|----------------------------------|
|----------------------------------|-0-----5---------2----------------|----------------------------------|
|----------------------------------|----------------------------------|----------------------------------|
|-0-----0-----0-----0-----0---0----|-0-----0-----0-----0-----0---0----|-0-----0-----0-----0-----0---0----|
 
measure 23
  |       |       |       |          |       |       |       |         
|-----4----------------------------|----------------------------------|
|-3--------------------------------|----------------------------------|
|-4--------------------------------|----------------------------------|
|----------------------------------|----------------------------------|
|----------------------------------|----------------------------------|
|-0-----0-----0-----0-----0---0----|-0-----0-----0-----0-----0---0----|

measure 25
  |       |       |       |          |       |       |       |          |       |       |       |         
|----------------------------------|----------------------------------|----------------------------------|
|-3--------------------------------|-3--------------------------------|-3--------------------------------|
|-------3--------------------------|-------3--------------------------|-------3--------------------------|
|-------------4-----0--------------|-------------4-----0--------------|-------------4-----0--------------|
|-------------------------1--------|-------------------------1--------|-------------------------1--------|
|-0-----0-----0-----0-----0---4----|-0-----0-----0-----0-----0---4----|-0-----0-----0-----0-----0---4----|
 
measure 28
  |       |       |       |          |       |       |       |          |       |       |       |         
|---7-7-7--------------------------|-1--------------------------------|-------2-----1---------1----------|
|-----------8-8-8-----------0-0-0--|-0--------------------------------|-------1-----0---4-----0-----1----|
|-------------------7-7-7----------|----------------------------------|-----------------2----------------|
|----------------------------------|----------------------------------|-----------------------------4----|
|----------------------------------|----------------------------------|----------------------------------|
|-0-----0-----0-----0-----0---0----|-0-----0-----0-----0-----0---0----|-0-----0-----0-----0-----0---0----|
 
measure 31
  |       |       |       |          |       |       |       |          |       |       |       |         
|----------------------------------|-------0--------------------------|----------------------------------|
|-4--------------------------------|-------------4---2-----4----------|-2--------------------------------|
|-2--------------------------------|-------3-----2---0-----2-----3----|-0--------------------------------|
|----------------------------------|-----------------------------2----|----------------------------------|
|----------------------------------|----------------------------------|----------------------------------|
|-0-----0-----0-----0-----0---0----|-0-----0-----0-----0-----0---0----|-0-----0-----0-----0-----0---0----|
 
measure 34
  |       |       |       |          |       |       |       |          |       |       |       |         
|----------------------------------|----------------------------------|----------------------------------|
|-------3-----2---0----------------|----------------------------------|----------------------------------|
|-------1-----0---------3-----2----|-1--------------------------------|----------------------------------|
|-----------------3-----2-----1----|-0--------------------------------|----------------------------------|
|----------------------------------|----------------------------------|----------------------------------|
|-0-----0-----0-----0-----0---0----|-0-----0-----0-----0-----0---0----|-0-----0-----0-----0-----0---0----|
 

Login or Register to remove this ad.