The Moon (SongeLeReveur Version) (Super Mario Land 2) Guitar Tab

Submitted: Jun 21, 2010 by ForestMarth (Last updated: Jun 23, 2010)

4
Average: 4 (4 votes)
Download | Listen
Game: Super Mario Land 2
Composer(s): Kazumi Totaka
Style: 2 or more instruments, Arrangement, Transcription
Series: Mario

Click here for a video example.

AutoScroll: Slow | Medium | Fast
Super Mario Land 2 - The Moon                           

Composed by : Kazumi Totaka
Arranged by : Songe Le Rêveur
Tabbed by : ForestMarth
Platform : GameBoy

Rhythm added to the original tab by Auriplane



Guitar 1



                                     Dsus2add13           A7                 
     H.              H.              E  E  E  E  E  E     E  E  E  E  E  E   
E||---------------|---------------|-----5--5-----5--5--|--------------------|
B||---------------|---------------|-----5--5-----5--5--|-----5--5-----5--5--|
G||---------------|---------------|-----4--4-----4--4--|-----6--6-----6--6--|
D||---------------|---------------|--------------------|-----5--5-----5--5--|
A||---------------|---------------|--5--------5--------|--------------------|
E||---------------|---------------|--------------------|--5--------5--------|


  A7add13              D7M                  G7M      G#dim       D7M      B7aug
  E  E  E  E  E  E     E  E  E  E  E  E     E  E  E  E  E  E     E  E  E  E  E  E   
--------------------|--------------------|--------------------|--------------------|
-----7--7-----7--7--|-----7--7-----7--7--|-----3--3-----3--3--|-----7--7-----8--8--|
-----6--6-----6--6--|-----6--6-----6--6--|-----4--4-----4--4--|-----6--6-----8--8--|
-----5--5-----5--5--|-----7--7-----7--7--|-----4--4-----3--3--|-----7--7-----7--7--|
--------------------|--5--------5--------|--------------------|--5-----------------|
--5--------5--------|--------------------|--3--------4--------|-----------7--------|


  Em9      A7add13     D7M                 F#m         Faug            
  E  E  E  E  E  E     E  E  S S Q.        S S S S S S S S S S S S  
--------------------|--------5----------|--------------------------|
-----7--7-----7--7--|-----7----7--------|------2-----------2-------|
-----7--7-----6--6--|-----6------6------|----2---2---2---2---2---2-|
-----5--5-----5--5--|-----7-------------|--4-------4---3-------3---|
--7-----------------|--5----------------|--------------------------|
-----------5--------|-------------------|--------------------------|


  Esus4add13  D#7dim         E                                              
  S S S S S S S S S S S S    S S S S S S S S S S S S    S S S S S S Q.      
--------------------------|--------------------------|---------------------|
------2-----------2-------|------0-----------0-------|--------0------------|
----2---2---2---2---2---2-|----1---1---1---1---1---1-|----1-----1----------|
--2-------2---1-------1---|--2-------2---2-------2---|--2---2-----2--------|
--------------------------|--------------------------|---------------------|
--------------------------|--------------------------|--------------0------|


  E           D#aug          Dsus4add13  C#7dim         D7M                
  S S S S S S S S S S S S    S S S S S S S S S S S S    E  E  E  E  E  E   
--------------------------|--------------------------|-----2--2-----2--2--|
------0-----------0-------|------0-----------0-------|-----2--2-----2--2--|
----1---1---1---0---0---0-|----0---0---0---0---0---0-|-----2--2-----2--2--|
--2-------2---1-------1---|--0-------0---------------|-----4--4-----4--4--|
--------------------------|--------------4-------4---|--5--------5--------|
--------------------------|--------------------------|--------------------|


  A7                   D7M                  A7                 Dsus2add13                 
  E  E  E  E  E  E     E  E  E  E  E  E     E  E  E  Q.        E  E  E  E  E  E   
-----0--0-----0--0--|-----2--2-----2--2--|-----0--0--3------|-----5--5-----5--5--|
-----2--2-----2--2--|-----2--2-----2--2--|-----2--2--2------|-----5--5-----5--5--|
-----0--0-----0--0--|-----2--2-----2--2--|-----0--0--0------|-----4--4-----4--4--|
-----2--2-----2--2--|-----4--4-----4--4--|-----2--2--2------|--------------------|
--0--------0--------|--5--------5--------|--0---------------|--5--------5--------|
--------------------|--------------------|------------------|--------------------|


  A7                   A7add13              D7M                  G7M      G#dim       
  E  E  E  E  E  E     E  E  E  E  E  E     E  E  E  E  E  E     E  E  E  E  E  E   
--------------------|--------------------|--------------------|--------------------|
-----5--5-----5--5--|-----7--7-----7--7--|-----7--7-----7--7--|-----3--3-----3--3--|
-----6--6-----6--6--|-----6--6-----6--6--|-----6--6-----6--6--|-----4--4-----4--4--|
-----5--5-----5--5--|-----5--5-----5--5--|-----7--7-----7--7--|-----4--4-----3--3--|
--------------------|--------------------|--5--------5--------|--------------------|
--5--------5--------|--5--------5--------|--------------------|--3--------4--------|


  D7M      B7/5+       Em9      A7add13     D7M                  G7M        G#dim           
  E  E  E  E  E  E     E  E  E  E  E  E     E  E  S S E  Q       S S S S E  S S S S E   
--------------------|--------------------|--------5-----------|----7----------7--------|
-----7--7-----8--8--|-----7--7-----7--7--|-----7----7---------|------7----------6------|
-----6--6-----8--8--|-----7--7-----6--6--|-----6------6-------|--------7----------7----|
-----7--7-----7--7--|-----5--5-----5--5--|-----7---------7----|--5-------5--6-------6--|
--5-----------------|--7-----------------|--5-----------------|------------------------|
-----------7--------|-----------5--------|--------------------|------------------------|


  F#m7       A7b5sus4         Em9     D#13      D7M            
                              ^       ^         ^              
  S S S S E  S  S S S S S     Q.      Q.        H.             
----5----------10---------|--(0)------8------|--2------------||
------5-----------8-------|---7-------6------|--2------------||
--------6-----------8---8-|---7-------6------|--2------------||
--4-------4--7--------7---|---5-------5------|--4------------||
--------------------------|---7-------6------|--5------------||
--------------------------|---0--------------|---------------||




Guitar 2



     S S S S S S Q.        H.                Q    E   Q    E     Q    E  Q.        E  E  E  Q      E   
E||---------------------|---------------|---------------------|-----------------|---------------------|
B||----------0-1-2------|--L------------|---------7--10----9--|--8--------------|----------------7g8--|
G||--2-1-2-3------------|---------------|--6g7----------------|-------9--6------|-----------9---------|
D||---------------------|---------------|---------------------|-----------------|--7--6--7------------|
A||--0-----------0------|--L------------|---------------------|-----------------|---------------------|
E||---------------------|---------------|---------------------|-----------------|---------------------|


  E  E  E  Q.          E  E  E  Q    E     E  E  E  Q    E     E  E  E   Q    E     Q.     Q    S S  
------------------|---------------------|-----------7-------|--------------------|--------------5-7-|
--7---------------|---------------------|--7--6--7-------7--|-----------10-------|------------------|
-----7------------|-------------7----9--|-------------------|--9--8--9--------6--|--7---------------|
--------9--7------|--8g9--8--9----------|-------------------|--------------------|------------------|
------------------|---------------------|-------------------|--------------------|------------------|
------------------|---------------------|-------------------|--------------------|------------------|


  Q    S S Q    S S    E  E.  S E   E   E     Q    S S Q    S S    Q.     Q    S  S  
--9----5-7-9----5-7-|--9--9---8-9--11------|--9----L-8-9----L-8-|--7----------------|
--------------------|------------------10--|--------------------|--------------8-10-|
--------------------|----------------------|--------------------|-------------------|
--------------------|----------------------|--------------------|-------------------|
--------------------|----------------------|--------------------|-------------------|
--------------------|----------------------|--------------------|-------------------|


   Q    S  S  Q    S  S     E   E   E   Q    S S    Q.     Q.        H.              H.            
------------------------|------10--14--17----9-8-|--7-------------|---------------|---------------|
--12----8-10-12----8-10-|--12--------------------|----------------|---------------|---------------|
------------------------|------------------------|----------------|---------------|---------------|
------------------------|------------------------|----------------|---------------|---------------|
------------------------|------------------------|----------------|---------------|---------------|
------------------------|------------------------|----------------|---------------|---------------|


  H.                Q    E   Q    E     Q    E  Q.        E  E  E  Q      E     E  E  E  Q.      
---------------|---------------------|-----------------|---------------------|------------------|
---------------|---------7--10----9--|--8--------------|----------------7g8--|--7---------------|
---------------|--6g7----------------|-------9--6------|-----------9---------|-----7------------|
---------------|---------------------|-----------------|--7--6--7------------|--------9--7------|
---------------|---------------------|-----------------|---------------------|------------------|
---------------|---------------------|-----------------|---------------------|------------------|


    E  E  E  Q    E     E  E  E  Q    E     E  E  E   Q    E     Q.     E   E   E   
---------------------|-----------7-------|--------------------|--------------------|
---------------------|--7--6--7-------7--|-----------10-------|---------7--10--11--|
-------------7----9--|-------------------|--9--8--9--------6--|--7-----------------|
--8g9--8--9----------|-------------------|--------------------|--------------------|
---------------------|-------------------|--------------------|--------------------|
---------------------|-------------------|--------------------|--------------------|


   E.   S  E   Q     E      E   E   E   Q     E      E   E   E   Q    E        H.             
--------------10----12--|--14--13--14--19----14--|--12--11--12--17----9--|--9g10------------||
--12---11-12------------|------------------------|-----------------------|------------------||
------------------------|------------------------|-----------------------|------------------||
------------------------|------------------------|-----------------------|------------------||
------------------------|------------------------|-----------------------|------------------||
------------------------|------------------------|-----------------------|------------------||




Melodica



     H.              H.              H.              H.              H.              H.            
E||---------------|---------------|---------------|---------------|---------------|---------------|
B||---------------|---------------|---------------|---------------|---------------|---------------|
G||---------------|---------------|---------------|---------------|---------------|---------------|
D||---------------|---------------|---------------|---------------|---------------|---------------|
A||---------------|---------------|---------------|---------------|---------------|---------------|
E||---------------|---------------|---------------|---------------|---------------|---------------|


  H.              H.              H.              H.              H.              H.            
---------------|---------------|---------------|---------------|---------------|---------------|
---------------|---------------|---------------|---------------|---------------|---------------|
---------------|---------------|---------------|---------------|---------------|---------------|
---------------|---------------|---------------|---------------|---------------|---------------|
---------------|---------------|---------------|---------------|---------------|---------------|
---------------|---------------|---------------|---------------|---------------|---------------|


  H.              Q.     E  S S S S    Q.     Q.        Q.     Q.        E  Q    E  Q     
---------------|--------------------|----------------|----------------|------------------|
---------------|--------------------|----------------|----------------|------------------|
---------------|------------5-6-7-8-|--9------8------|--7------6------|------------------|
---------------|--------------------|----------------|----------------|------------------|
---------------|--------------------|----------------|----------------|-----4----2-------|
---------------|--------------------|----------------|----------------|------------------|


  E  Q    E  Q       E  Q    E  Q       E  Q    E  Q       H.              H.            
------------------|------------------|------------------|---------------|---------------|
------------------|------------------|------------------|---------------|---------------|
------------------|------------------|------------------|--7------------|--6------------|
------------------|------------------|------------------|---------------|---------------|
-----5----4-------|-----4----2-------|-----5----4-------|---------------|---------------|
------------------|------------------|------------------|---------------|---------------|


  E  E  E   Q.         H.               Q.      Q.         Q.      Q.        Q.      Q    E   
-------------------|----------------|------------------|------------------|------------------|
-----------12------|--10------------|--12------11------|--10--------------|------------------|
--9--8--9----------|----------------|------------------|----------11------|--L------12----9--|
-------------------|----------------|------------------|------------------|------------------|
-------------------|----------------|------------------|------------------|------------------|
-------------------|----------------|------------------|------------------|------------------|


                                                                  |---3---|                            
   H.               Q.     Q.         Q.      Q.         Q    S.  X   X   X   Q.        H.             
----------------|-----------------|------------------|--10----L----------------------|---------------||
----------------|--12------9------|--10--------------|-----------11h-13p-11p-10------|--L------------||
--11------------|-----------------|----------11------|-------------------------------|---------------||
----------------|-----------------|------------------|-------------------------------|---------------||
----------------|-----------------|------------------|-------------------------------|---------------||
----------------|-----------------|------------------|-------------------------------|---------------||




Duration Legend
---------------
W - whole
H - half
Q - quarter
E - 8th
S - 16th
T - 32nd
X - 64th
. - note dotted
|-n-|  - n-tuplets


Tablature Legend
----------------
L - tied note
x - dead note
g - grace note
(n) - ghost note
> - accentuded note
NH - natural harmonic
AH - artificial harmonic
TH - tapped harmonic
SH - semi harmonic
PH - pitch harmonic
h - hammer on
p - pull off
b - bend
br - bendRelease
pb - preBend
pbr - preBendRelease
brb - bendReleaseBend
\n/ - tremolo bar dip
\n - tremolo bar dive
-/n - tremolo bar Release up
/n\ - tremolo bar inverted dip
/n - tremolo bar return
-\n - tremolo bar Release down
S - shift slide
s - legato slide
/ -  slide into from below or out of upwards
\ -  slide into from above or out of downwards
~ - vibrato
W - wide vibrato
tr - trill
TP - tremolo picking
T - tapping
S - slap
P - pop
< - fade in
^ - brush up
v - brush down
Login or Register to remove this ad.