Ads

Rosalina Story & Sad Story (Super Mario Galaxy) Guitar Tab

Submitted: Oct 13, 2010 by diralark

5
Average: 5 (10 votes)
Download | Listen
Game: Super Mario Galaxy
Composer(s): Koji Kondo, Mahito Yokota
Style: Arrangement, Fingerstyle, Transcription
Series: Mario

AutoScroll: Slow | Medium | Fast
Rosalina Story + Sad Story   [ from Super Mario Galaxy ]

Music by Koji Kondo, Mahito Yokota >> piano arr. by Aivi Tran >> tab by Diralark

Ost : http://www.youtube.com/watch?v=3rslRb24wyg&feature=related

Guitar, Tempo 77

                                ^                                                
     E  E  E  E  E  E  E  E     E  E  E  Q.     Q       E  E  E  E  E  E  E  E   
E||--------0--0--------------|--3--------------------|-----------0--------------|
B||--------------3--1--0--1--|--3-----0--3-----------|--------------3--1--0--1--|
G||-----0--0-----------------|-----0------------0----|--------2-----------------|
D||--------------------------|-----------------------|-----2--------------------|
A||--3-----------------------|--2--------------------|--0-----------------------|
E||--------------------------|-----------------------|--------------------------|


                          III + V (3)                      --       V             
  ^                                                        ^        ^             
  E  E  E  Q.     Q       E   E       E  E  E  E  E  E     E  E  E  Q.     E  E   
--5--------3-----------|-----------------5--3-----------|--3---------------------|
--5-----5--5-----------|--------------6--------6--5--6--|--5-----5---------5-----|
--4--4-----4------4----|------5-------5-----------------|--5--5-----5---------5--|
--2--------------------|--3-----------------------------|-----------5------------|
-----------------------|--------------------------------|------------------------|
-----------------------|--------------------------------|--0---------------------|


  --             -]                                                               
                             ^                                                    
  E  E  E  E  E  E  E  E     E  E  E  Q    E  E  E       E  E  E  E  E  E  E  E   
--------------------------|--0----------------------||------------0--------------|
-----------5--------0--1--|-----------3-------------||---------1-----3--1--0--1--|
--------7-----7--5--------|--2-----2-------0--------||*-----0--0--------0--------|
-----7--7-----------------|--3--0-------------0-----||*--------------------------|
--5-----------------------|----------------------2--||---3-----------------------|
--------------------------|--3----------------------||---------------------------|


                                                       III                      
  ^                                                    ^         ^              
  E  E  E  Q    E  E  E     E  E  E  E  E  E  E  E     E   E  E  Q    E  E  E   
--3----------------------|-----------0--------------|--5---------3----------3--|
--3-----0--3-------0-----|--------------3--1--0--1--|--3---------5-------------|
-----0----------0-----0--|--------2-----------2-----|--3---------5-------3-----|
-------------------------|-----2-----2-----2--------|---------5-------5--------|
--2----------------------|--0-----------------------|------5-----3-------------|
-------------------------|--------------------------|--3-----------------------|


1._____________________________
  III + V(3)                         V        VI   (1) <--FAST                                   
                                     ^        ^                                        ^         
  E          E  E  E  E  E  E  E     E  E  E  Q    E           E  E     E  E  E  E  E  E  E  E   
-------------------5--3-----------|-----------8----------------------|--1--0--------------------|
----------------6--------6--5--6--|--8-----5--8----1-----------1--3--|--------1--------3-----1--|
-------------5--5--5-----5--------|--5--5-----8----------------2-----|-----2-----2-----0--0-----|
--3-------------------------------|----------------------------------|--0--------------0-----2--|
----------------------------------|--7--------6----------------------|--------------------------|
----------------------------------|----------------------------------|--------------3-----------|


  III                         --          -]                                    
                                               >        ^  ^  ^          >  ^   
  E   E  E  E  E  E  E  E     E  E  E  E  Q    E  E     E  E  E  E  Q    E  E   
---------------3-----------|--------------3----0-----|--8-----0-----8----0-----|
------------3--------3--6--|--5--------5----------6--|-----------6----------6--|
---------5--------5--------|--------5----------------|-------------------------|
------5--------------------|-----5-------------------|--0-----0----------------|
--3------------------------|--3----------------------|-----0-------------------|
---------------------------|-------------------------|-------------------------|


                                VII                                              
  ^  ^  ^          >  ^      ^  ^   ^  >        >  ^     ^  ^  ^  >              
  E  E  E  E  Q    E  E      E  E   E  E   Q    E  E     E  E  E  E  Q    E  E   
--7-----0-----7----------|--10------------10----------|--8-----0-----8----0-----|
-----------6-------7--8--|----------7--8--------7--8--|-----------8----------6--|
--------0----------------|----------------------------|-------------------------|
-----0-------------------|----------------------------|--------7----------------|
-------------------------|----------7-----------------|--0--7-------------------|
--3----------------------|---0--7---------------------|-------------------------|


  VIII                                                                                   
  E    E   E  E  E  E   E   E     E  E   E  E  E  E   E   E     E  E  E  E  E  E  E  E   
--8-----------------8----------|--8---------------8----------|--7-----------------------|
-----------------------12--10--|---------------------12--10--|--------------------------|
-------------------------------|-----------------------------|--------------------------|
--0----------------------------|-----------------------------|--------------9--------7--|
-------0--12-----8-------------|--9-----12-----9-------------|--------7--9-----7--9-----|
--------------8-----8----------|-----8------8-----8----------|--0--7--------------------|


                                      2._____________________
  (1) <--FAST                           I                                    VIII                
                                                                   ^                             
  E           E  E  E  E  E  E  E       E  E  E  E  E  E  E  E     E  E  E   E   E   E   E   E   
------------------------------------||-----------5--3--1--0--1--|--3---------8------------------|
--------------------------------3---||--------1-----------------|--5---------8------------------|
--1-----------------0--------1-----*||--------------------------|--5---------8------------------|
-----------------2-----0--3--------*||--------3-----------3-----|---------------------------10--|
--------------2---------------------||-----3-----3-----3--------|--------7--------------10------|
--0-----------------3---------------||--1-----------------------|--0--8-----11---8--11----------|


     -]                                                                          
                                         ^                                       
  E  E  E  E  E  E  E  E     E  E  E  E  E  E  E  E     E  E  E  E  E  E  E  E   
--------------1--0--------|--------0--1--3--1--0-----|-----------0--1--0--------|
-----8--------------1-----|--------------3--------3--|--2-----3-----------1-----|
--8-----5--7-----2-----2--|--------0-----3-----------|--2-----2-----2--------2--|
--------------0-----------|-----0--------2-----------|-----2--3-----0-----------|
--------------------------|--------------------------|--0-----------------------|
--------------------------|--3-----------------------|--------------------------|


             rall. ....................> T=60             T=77 
     ^                                                                              
  E  E  E  E  E  E  E  E     E  E  E  E   H.               E  E  E  E  E  E  E  E   
--------------------------|--3--------------------------|--------------------------|
-----3-----1--------1--3--|-----1--3--------------------|--1-----1-----0-----0-----|
-----0--0--------0--------|-----------------------------|--------------------------|
-----0-----2--------------|-----------3---2-------------|--2--2-----2--2--2-----2--|
--------------3-----------|-----------3--(3)------------|--0-----------0-----------|
--3-----------------------|-----------------------------|--------------------------|


  E  E  E  E  Q.     E     E  E  E  E  E  E  E  E     E  E  E  E  H         
------------------------|--------------------------|-----------------------|
--3-----3-----1------0--|--1-----1-----0-----0-----|--3-----3-----1--------|
------------------------|--0-----------------------|-----------------------|
--2--2-----2--2---------|--2--2-----2--2--2-----2--|--2--2-----2--2--------|
--0---------------------|--0-----------0-----------|--0--------------------|
------------------------|--------------------------|-----------------------|


                             ^        ^                               
  E  E  E  E  E  E  E  E     H        H           H        H          
--------------------------|--------------------|--------------------||
--3--1--0-----------------|-----------0--------|--L-----------------||
-----------2--------------|--2--------1--------|--L-----------------||
--3-----------3--2--------|--0--------0--------|--L-----------------||
--------------------3--2--|--2--------2--------|--L-----------------||
--------------------------|--0-----------------|--------------------||

Legend
---------------
W - whole
H - half
Q - quarter
E - 8th
S - 16th
. - note dotted
L - tied note
(n) - ghost note
> - accentuded note
^ - accentuded note inside bar 18-21, but brush up elsewhere, gp5/pdf files are more explicit


Login or Register to remove this ad.

3 comments on Rosalina Story & Sad Story

Awesomeness. Pure awesomeness

5

Awesomeness. Pure awesomeness

Hey ! thank you

I'm too happy about his tab. btw Maybe it sounds better with brush up for each chords in the last part (at T=77), I just forgot to indicate it. You can also find my first try for this tune here : http://www.gametabs.net/super-mario-galaxy/story-begins

fun to play!

fun to play!