Ads

Luma/Sad Story (Super Mario Galaxy) Guitar Tab

Submitted: May 17, 2019 by guitarsvd (Last updated: Jun 08, 2019)

5
Average: 5 (2 votes)
Download | Listen
Game: Super Mario Galaxy
Composer(s): Koji Kondo, Mahito Yokota
Style: Arrangement, Artificial harmonics, Fingerstyle
Series: Mario

Click here for a video example.

AutoScroll: Slow | Medium | Fast
                                Luma/Sad Story                                  


                                                          Cecil Chau (GuitarSVD)
Track 1



     Q    Q      Q      Q         Q      Q      Q      Q     
E||-------------------<>0----|------------------------------|
B||--------------------------|--<>3----<>1----<>0----<>1----|
G||------------<>0-----------|----L-------------------------|
D||-------2------L-----------|------------------------------|
A||--3-----------------------|------------------------------|
E||--------------------------|------------------------------|


    H.             Q       W                   Q    Q      Q      Q     
--<>3-------------------|-------------------|-------------------<>0----|
----0------------<>3----|--L----------------|--------------------------|
------------------------|-------------------|------------<>0-----------|
------------------------|-------------------|-------2------L-----------|
----2-------------------|--L----------------|--0-----------------------|
------------------------|-------------------|--------------------------|


    Q      Q      Q      Q         H.             Q       W                 
------------------------------|--<>5------------<>3----|--L----------------|
--<>3----<>1----<>0----<>1----|----0-------------------|-------------------|
------------------------------|------------------------|-------------------|
----L-------------------------|----2-------------------|--L----------------|
------------------------------|------------------------|-------------------|
------------------------------|------------------------|-------------------|


  Q    Q      Q      Q         Q      Q      Q      Q     
-------------------<>5----|--<>3----<>1----<>0----<>1----|
------------<>1-----------|------------------------------|
-------2------L-----------|----L-------------------------|
--3-----------------------|------------------------------|
--------------------------|------------------------------|
--------------------------|------------------------------|


    H.             Q       W                   Q    Q      Q      Q     
--<>3-------------------|-------------------|-------------------<>0----|
-----------------<>1----|--L----------------|--------------------------|
------------------------|-------------------|------------<>2-----------|
----2-------------------|-------------------|-------4------L-----------|
------------------------|--0----------------|--5-----------------------|
------------------------|-------------------|--------------------------|


    Q      Q      Q      Q         Q    Q    Q      Q       W                 
------------------------------|--<>0---------------------|-------------------|
--<>3----<>1----<>0----<>1----|-------------------<>3----|--L----------------|
------------------------------|--------------0-----------|--L----------------|
----L-------------------------|---------0----------------|-------------------|
------------------------------|--------------------------|-------------------|
------------------------------|----3---------------------|-------------------|


    Q    Q    Q    Q       Q    Q    Q    Q       Q    Q    Q    Q     
|------------------0----|----------------------|--3-------------------|
|------------------1----|--3----1----0----1----|--0--------------3----|
|*------------0---------|--0-------------------|------------0----0----|
|*-------2--------------|-------2--------------|-------0--------------|
|---3-------------------|------------3---------|--2-------------------|
|-----------------------|----------------------|----------------------|


  W                   Q    Q    Q    Q       Q    Q    Q    Q     
-------------------|-----------------0----|----------------------|
--L----------------|-----------------1----|--3----1----0----1----|
--L----------------|------------0---------|----------------------|
-------------------|-------2--------------|-------2--------------|
-------------------|--0-------------------|--L--------------0----|
-------------------|----------------------|----------------------|


  Q    Q    Q    Q       Q    Q    Q    Q       Q    Q    Q    Q     
--5--------------3----|--L-------------------|-----------------5----|
--3---------3----5----|-----------------5----|------------1---------|
-------3--------------|------------3---------|------------2---------|
-----------------5----|--L----5--------------|-------3--------------|
-----------------3----|----------------------|----------------------|
--3-------------------|----------------------|--1-------------------|


  Q    Q    Q    Q       Q    Q    Q    Q       Q    Q    Q    Q     
--3----1----0----1----|--3--------------8----|--L-------------------|
----------------------|--0---------0----8----|--L-------------------|
--L-------------------|-------0--------------|------------5----7----|
-------3--------------|--2-------------------|-------5--------------|
----------------------|----------------------|--6-------------------|
-----------------1----|----------------------|----------------------|


  Q    Q    Q    Q       Q    H        Q       Q    Q    Q    Q     
--1----0--------------|---------------------|----------------------|
------------1---------|-------3--------1----|--L--------------1----|
-------2---------0----|-------1-------------|------------0---------|
--0---------L---------|-------3-------------|-------2--------------|
----------------------|---------------------|--3-------------------|
----------------------|--3------------------|----------------------|


  H        Q     Q       Q    Q    Q     Q       H        Q     Q     
-----------0h----1----|--8--------------------|--8-------------------|
--L-------------------|------------5h----6----|-----------5h----6----|
----------------------|-------7---------------|----------------------|
----------------------|--0--------------------|--L-------------------|
----------------------|-----------------------|----------------------|
----------------------|-----------------------|----------------------|


  Q    Q    Q     Q       H        Q     Q        Q    Q    Q     Q     
--7--------------------|--7-------------------|--10--------------------|
------------5h----6----|-----------7h----8----|-------------7h----8----|
-------7---------------|----------------------|------------------------|
--5--------------------|--L-------------------|--------9---------------|
-----------------------|----------------------|---7--------------------|
-----------------------|----------------------|------------------------|


   H        Q     Q       Q    Q    Q     Q       H        Q    Q     
--10-------------------|--8--------------------|--8--------7----5----|
------------5h----8----|------------5h----8----|---------------------|
-----------------------|-----------------------|---------------------|
-----------------------|-------7---------------|---------------------|
---L-------------------|-----------------------|---------------------|
-----------------------|--5--------------------|--L------------------|


  Q     Q     Q     Q       Q     Q    Q     Q       Q     Q     Q     Q     
--8----------------------|--------8----7----------|--8----------------------|
-------------10----------|------------------10----|-------------10----------|
-------------------------|------------------------|-------------------------|
-------10----------10----|-------10---------------|-------10----------10----|
--8----------------------|--8---------------------|--9----------------------|
-------------------------|------------------------|-------------------------|


  Q     Q    Q     Q       Q    Q    Q     Q       Q    Q     Q    Q     
--------8----7----------|--7--------------------|-----------------------|
------------------10----|-----------------------|--0--------------------|
------------------------|-----------------------|------------------2----|
-------10---------------|------------2h----4----|-------2h----4---------|
--9---------------------|-------2---------------|-----------------------|
------------------------|--0--------------------|-----------------------|


                      ^                                          
  W                   W                     Q    Q    Q    Q     
-------------------|--------------------||--1----0--------------|
-------------------|--------------------||------------1---------|
--1----------------|--0----------------*||-------2---------2----|
--2----------------|--0----------------*||--0-------------------|
-------------------|--------------------||----------------------|
--0----------------|--3-----------------||----------------------|


                        ^                                           
  H        Q    Q       Q    Q    Q    Q       Q    Q    Q    Q     
-----------0----1----|--3----1----0---------|-----------------0----|
---------------------|--3--------------3----|--2---------3---------|
--L------------------|--3---------3---------|------------2---------|
---------------------|----------------------|-------2--------------|
---------------------|----------------------|--0-------------------|
---------------------|--0-------------------|----------------------|


  Q    Q    Q    Q       Q    H        Q       Q    Q    Q    Q     
--1----0--------------|---------------------|----------------------|
------------1---------|-------3--------1----|--L--------------1----|
-------2---------0----|--L----1-------------|------------0---------|
--0-------------------|-------3-------------|-------2--------------|
----------------------|---------------------|--3-------------------|
----------------------|--3------------------|----------------------|


  Q    Q    Q    E     Q    Q    Q    E     Q    Q    Q    E   
--------------------|--------------------|--1-----------------|
--L-----------------|-----------------1--|-------1------------|
-------0------------|------------1-------|------------1-------|
------------2-------|-------3------------|-----------------3--|
-----------------3--|--------------------|--------------------|
--------------------|--1-----------------|--------------------|


  Q    Q      Q      Q         Q      Q      Q      Q     
-------------------<>0----|------------------------------|
--------------------------|--<>3----<>1----<>0----<>1----|
------------<>0-----------|----L-------------------------|
-------2------L-----------|------------------------------|
--3-----------------------|------------------------------|
--------------------------|------------------------------|


    ^                  
    W                  
--<>3----------------||
----1----------------||
----0----------------||
----2----------------||
----3----------------||
---------------------||




Duration Legend
---------------
W - whole
H - half
Q - quarter
E - 8th
S - 16th
T - 32nd
X - 64th
. - note dotted
|-n-|  - n-tuplets


Tablature Legend
----------------
L - tied note
x - dead note
g - grace note
(n) - ghost note
> - accentuded note
NH - natural harmonic
AH - artificial harmonic
TH - tapped harmonic
SH - semi harmonic
PH - pitch harmonic
h - hammer on
p - pull off
b - bend
br - bendRelease
pb - preBend
pbr - preBendRelease
brb - bendReleaseBend
\n/ - tremolo bar dip
\n - tremolo bar dive
-/n - tremolo bar Release up
/n\ - tremolo bar inverted dip
/n - tremolo bar return
-\n - tremolo bar Release down
S - shift slide
s - legato slide
/ -  slide into from below or out of upwards
\ -  slide into from above or out of downwards
~ - vibrato
W - wide vibrato
tr - trill
TP - tremolo picking
T - tapping
S - slap
P - pop
< - fade in
^ - brush up
v - brush down
Login or Register to remove this ad.