Comet Observatory (Super Guitar Bros Version) (Super Mario Galaxy) Guitar Tab

Submitted: Jun 09, 2017 by Coolbreeze (Last updated: Jun 13, 2017)

5
Average: 5 (3 votes)
Download | Listen
Game: Super Mario Galaxy
Composer(s): Koji Kondo, Mahito Yokota
Style: 2 or more instruments, Arrangement, Natural harmonics, Transcription
Series: Mario

Click here for a video example.

AutoScroll: Slow | Medium | Fast
			  Comet Observatory
			~Super Mario Galaxy~

Music by Koji Kondo
Arranged by Super Guitar Bros
Tabbed by Coolbreeze
Tempo = 76

Standard Tuning


Guitar 1

     Q.     Q.        Q.     Q.        Q.     Q.        Q.     Q.      
E||----------------|----------------|----------------|----------------|
B||--3------5------|--6------8------|--3------5------|--6------8------|
G||--4------5------|--7------9------|--4------5------|--7------9------|
D||----------------|----------------|----------------|----------------|
A||----------------|----------------|----------------|----------------|
E||----------------|----------------|----------------|----------------|


  H.              S S  E.  S  E  E.  S    E   E  E  Q.      
---------------|------12---7-10--8-----|--7------8---------|
---------------|----8----------------9-|-----10------------|
---------------|--9--------------------|------------7------|
---------------|-----------------------|-------------------|
---------------|-----------------------|-------------------|
---------------|-----------------------|-------------------|


  E  E.   S E  E.   S     E  E   E  Q.        S S  E.  S  E  E.   S  
--8--7------8--7------|--------------------|------12---7-10--8------|
----------------------|--10-----10--8------|----8-------------------|
---------10--------10-|------8-------------|--9------------------13-|
----------------------|--------------------|------------------------|
----------------------|--------------------|------------------------|
----------------------|--------------------|------------------------|


   S  S  E.   S  E   Q        E   E.   S  E   E.  S    H.            
--------15------15--13----|--13--12------12--10---7-|--8------------|
-----13------13-----------|-------------------------|---------------|
--14----------------------|-----------12------------|---------------|
--------------------------|-------------------------|---------------|
--------------------------|-------------------------|---------------|
--------------------------|-------------------------|---------------|


  S S  E.  S  E  E.  S    E   E  E  Q.        E  E.   S E  E.   S  
------12---7-10--8-----|--7------8---------|--8--7------8--7------|
----8----------------9-|-----10------------|----------------------|
--9--------------------|------------7------|---------10--------10-|
-----------------------|-------------------|----------------------|
-----------------------|-------------------|----------------------|
-----------------------|-------------------|----------------------|


   E  E   E  Q.        S S  E.  S  E  E.   S     S  S  E.   S  E   Q     
--------------------|------12---7-10--8------|--------15------15--13----|
--10-----10--8------|----8-------------------|-----13------13-----------|
------8-------------|--9------------------13-|--14----------------------|
--------------------|------------------------|--------------------------|
--------------------|------------------------|--------------------------|
--------------------|------------------------|--------------------------|


   E   E.   S  E   E.  S    H.              E   E  E  E  E  E   
--13--12------12--10---7-|--8------------|------------------7--|
-------------------------|---------------|--8---------8--------|
-----------12------------|---------------|---------7-----7-----|
-------------------------|---------------|-----10--------------|
-------------------------|---------------|---------------------|
-------------------------|---------------|---------------------|


  Q.      Q.        E   E  E  E  E  E     Q     E  Q.      
-----------------|------------------7--|-------10--7------|
--8--------------|--8---------8--------|--8---------------|
-----------------|---------7-----7-----|------------------|
---------10------|-----10--------------|------------------|
-----------------|---------------------|------------------|
-----------------|---------------------|------------------|


                                                                   ^        
  E   E  E  E  E  E     Q.      Q.        Q.     Q.        Q.      Q    E   
------------------7--|-----------------|--5------0------|--8------10-------|
--8---------8--------|--8--------------|--8------8------|--8-------8-------|
---------7-----7-----|-----------------|--5------7------|--9------10-------|
-----10--------------|---------10------|----------------|----------9----9--|
---------------------|-----------------|----------------|------------------|
---------------------|-----------------|----------------|------------------|


  S S  E.  S  E  E.  S    E   E  E  Q.        E  E.   S E  E.   S  
------12---7-10--8-----|--7------8---------|--8--7------8--7------|
----8----------------9-|-----10------------|----------------------|
--9--------------------|------------7------|---------10--------10-|
-----------------------|-------------------|----------------------|
-----------------------|-------------------|----------------------|
-----------------------|-------------------|----------------------|


   E  E   E  Q.        S S  E.  S  E  E.   S     S  S  E.   S  E   Q     
--------------------|------12---7-10--8------|--------15------15--13----|
--10-----10--8------|----8-------------------|-----13------13-----------|
------8-------------|--9------------------13-|--14----------------------|
--------------------|------------------------|--------------------------|
--------------------|------------------------|--------------------------|
--------------------|------------------------|--------------------------|


   E   E.   S  E   E.  S    H.            
--13--12------12--10---7-|--8------------|
-------------------------|---------------|
-----------12------------|---------------|
-------------------------|---------------|
-------------------------|---------------|
-------------------------|---------------|


  |-3-| |-3-| |-3-| |-3-| |-3-| |-3-|    |-3-| |-3-| |-3-| |-3-| |-3-| |-3-|  
  S S S S S S S S S S S S S S S S S S    S S S S S S S S S S S S S S S S S S  
--------------------------------------|--------------------------------------|
--------------------------------------|--------------5-----6-----5-----------|
--5-----5-----5-----5-----5-----5-----|--5-----7-----------------------7-----|
----5-----5-----5-----5-----5-----5---|----5-----5-----5-----5-----5-----5---|
------8-----8-----8-----8-----8-----8-|------7-----7-----7-----7-----7-----7-|
--------------------------------------|--------------------------------------|


  |-3-| |-3-| |-3-| |-3-| |-3-| |-3-|    |-3-| |-3-| |-3-| |-3-| |-3-|     
  S S S S S S S S S S S S S S S S S S    S S S S S S S S S S S S S S S E   
--------------------------------------|-----------------------------------|
--------------------------------------|-----------------------------------|
--5-----5-----5-----5-----------------|--------------------5--------------|
----5-----5-----5-----5---9-----7-----|--5-----7-----9-----------9-----5--|
------5-----5-----5-----5---5-----5---|----5-----5-----5-----5-----5------|
------------------------------8-----7-|------7-----7-----7-----7-----7----|


  |-3-| |-3-| |-3-| |-3-| |-3-| |-3-|    |-3-| |-3-| |-3-| |-3-|       
  S S S S S S S S S S S S S S S S S S    S S S S S S S S S S S S Q     
--------------------------------------|-------------------------------|
----0---------0---------0---------0---|------1-------1-------1--------|
------0---0-----0---0-----0---0-----0-|--------0-------0-------0------|
--------0---------0---------0---------|--0-------2-------2-------2----|
--------------------------------------|-------------------------------|
--1---------1---------1---------1-----|----0-------0-------0----------|


                                                           ^       
  |-3-| |-3-| |-3-| |-3-| |-3-| |-3-|    |-3-| |-3-| |-3-|         
  S S S S S S S S S S S S S S S S S S    S S S S S S S S S Q.      
--------------------------------------|---------------------------|
--------------------0-----0-----0-----|--1-----1-----1-----3------|
--2-----2-----2-------0-----0-----0---|---------------------------|
----0-----0-----0-------0-----0-----0-|----2-----2-----2---3------|
------3-----3-----3-------------------|---------------------------|
--------------------------------------|------3-----3-----3-3------|


  H.             
---------------||
--L------------||
---------------||
--L------------||
---------------||
--L------------||




Guitar 2

     E  E  E  E  E  E     E  E  E  E  E  E     E  E  E  E  E  E   
E||--------------------|--------------------|--------------------|
B||-----8--8-----8--8--|-----8--8-----8--8--|-----8--8-----8--8--|
G||--------------------|--------------------|--------------------|
D||--------------------|--------------------|--------------------|
A||--------------------|--------------------|--------------------|
E||--------------------|--------------------|--------------------|


           ^                                                        
  E  E  E  Q.        H.              Q.     Q.        H.            
------------------|---------------|----------------|---------------|
-----8--8--8------|---------------|----------------|---------------|
-----------7------|---------------|----------------|---------------|
-----------5------|---------------|---------2------|--3------------|
------------------|---------------|--3-------------|---------------|
------------------|---------------|----------------|---------------|


  Q.     Q.        H.              Q.     Q.        Q.     Q.      
----------------|---------------|----------------|----------------|
----------------|---------------|----------------|----------------|
----------------|---------------|----------------|---------1------|
--5-------------|---------------|---------2------|--3-------------|
----------------|--3------------|--3-------------|----------------|
---------3------|---------------|----------------|----------------|


  Q.     Q.        H.              Q.     Q.        Q.     Q.      
----------------|---------------|----------------|----------------|
----------------|---------------|----------------|----------------|
--0-------------|---------------|---------0------|--2-------------|
----------------|---------------|--2-------------|--3-------------|
----------------|--3------------|--3-------------|----------------|
---------3------|---------------|---------0------|--1-------------|


  Q.     Q.        Q.     Q.        Q.     Q.        Q.     Q.      
----------------|----------------|----------------|----------------|
----------------|----------------|----------------|--1------1------|
--0-------------|----------------|---------0------|--2------1------|
---------0------|--1------2------|--2------2------|--3-------------|
----------------|--3------3------|--3-------------|----------------|
--3------3------|----------------|----------------|---------4------|


  Q.     Q.        H.              Q.     Q.        Q.     Q.      
----------------|---------------|----------------|----------------|
--0-------------|--1------------|--6-------------|--5-------------|
--0-------------|--0------------|----------------|----------------|
---------3------|--2------------|----------------|----------------|
----------------|--3------------|--8-------------|--7-------------|
--3------3------|---------------|----------------|----------------|


  Q.     Q.        Q.     Q.        Q.     Q.        Q.     Q.      
----------------|----------------|----------------|----------------|
--3-------------|--1-------------|--6-------------|--5-------------|
----------------|----------------|----------------|----------------|
----------------|----------------|----------------|----------------|
--5-------------|--3-------------|--8-------------|--7-------------|
----------------|----------------|----------------|----------------|


                          ^                                                  
  Q.     Q.        Q.     Q.        E  E  E  E  E  E     E  E  E  E  E  S S  
----------------|----------------|--------------------|---------------------|
---------0------|--1------3------|-----1--1-----1--1--|-----1--1--0-------1-|
--2------2------|---------0------|-----0--0-----0--0--|-----2--2-----2------|
--5-------------|--2------2------|-----2--2-----2--2--|-----3--3------------|
----------------|---------2------|--3-----------------|-----------------3---|
----------------|--3------3------|-----------0--------|--1--------1---------|


  E  E  E  E  E  E     E  E  E  E  E  E     E  E  E  E  E  E   
--------------------|--------------------|--------------------|
-----0--0-----0--0--|-----1--1-----1--1--|-----1--1-----------|
-----0--0-----0--0--|-----0--0-----0--0--|-----0--0-----0--0--|
--0-----------0--0--|-----2--2-----2--2--|-----2--2-----2--2--|
--------------------|--3--------3--------|--3-----------------|
--3--------3--------|--------------------|-----------0--------|


  E  E  E  E  E  E     E  E  E  E  E  E     E  E  E  Q.      
--------------------|--------------------|------------------|
-----1--1-----1--1--|-----3--3-----0--0--|-----1------------|
-----2--2-----1--1--|-----0--0-----0--0--|-----0------------|
-----3--3-----3--3--|-----0--0-----0--0--|-----2--2---------|
--------------------|--------------------|--3--------3------|
--1--------4--------|--3--------3--------|------------------|


  E   E  E  E  E  E     Q.      Q.        E   E  E  E  E  E   
------------------7--|-----------------|------------------7--|
--8---------8--------|--8--------------|--8---------8--------|
---------7-----7-----|-----------------|---------7-----7-----|
-----10--------------|---------10------|-----10--------------|
---------------------|-----------------|---------------------|
---------------------|-----------------|---------------------|


              NH                                                ^      ^       
  Q     E     Q.        E   E  E  E  E  E     Q.      Q.        Q.     Q.      
-------10------------|------------------7--|-----------------|--5------7------|
--8--------<>12------|--8---------8--------|--8--------------|--8------8------|
---------------------|---------7-----7-----|-----------------|--5------7------|
---------------------|-----10--------------|---------10------|----------------|
---------------------|---------------------|-----------------|----------------|
---------------------|---------------------|-----------------|----------------|


  ^       ^                         
  Q.      Q.         H.             
--8------10------|---L------------||
--8-------8------|---L------------||
--9------10------|---L------------||
----------9------|---L------------||
-----------------|----------------||
-----------------|----------------||
Login or Register to remove this ad.

1 comment on Comet Observatory (Super Guitar Bros Version)

Finna learn this

5

Boutta learn this