Ads

Underworld (Super Mario Brothers) Guitar Tab

Submitted: Jun 05, 2011 by iCameiSawiPwned

4.166665
Average: 4.2 (6 votes)
Download | Listen
Game: Super Mario Brothers
Composer(s): Koji Kondo
Style: Transcription
Series: Mario

AutoScroll: Slow | Medium | Fast
e|-----------------------------|
B|-1-1-------------1-1---------|
G|-----2-2-3-3---------2-2-3-3-|
D|-----------------------------|
A|-----------------------------|
E|-----------------------------|

e|-----------------------------|
B|-----------------------------|
G|-----------------------------|
D|-3-3-0-0-1-1-----3-3-0-0-1-1-|
A|-----------------------------|
E|-----------------------------|

e|-----------------------------------------------|
B|-----------------------------------------------|
G|-----------------------------3-2-1-------------|
D|----------1-0----------4-3-2--------1----------|
A|-6\5\4\3-----------4-3-----------------2-1-0---|
E|---------------4-3---------------------------4-|

Yeah, I know that the beginning part is only on one octave,
but I find that it's easier to play and doesn't sound too horrible.
Login or Register to remove this ad.

1 comment on Underworld

:)

4

its a good song