Ads

Underwater (Super Mario Brothers) Guitar Tab

Submitted: May 01, 2014 by Alfa_ice

4.916665
Average: 4.9 (12 votes)
Download | Listen
Game: Super Mario Brothers
Composer(s): Koji Kondo
Style: Arrangement, Fingerstyle
Series: Mario

AutoScroll: Slow | Medium | Fast
                               Underwater Theme                                 

Super Mario Bros.
Composed by: Koji Kondo
Tabbed by: Isac Saleh
Standard tuning: EADGBE



     E  E  E  E  E  E  S S S S S S Q    E   
E||----------------------------0---1-------|
B||--------------------0-0-0---0---0-------|
G||-----------0--2--3----------0---0----0--|
D||--0--2--4-----------0---L---------------|
A||-----4--3--2--3--4----------------------|
E||----------------------------3---3-------|


  E  E  E  E  E  E  E  E  E.  S  S  S S  S  
--------------------0----------------------|
--5--------4--------------------------1h-3-|
-----0--5-----0--4-----0--5---0h-2h-4------|
-------------------------------------------|
--3--------2--------3----------------------|
-------------------------------------------|


  E  E  E  E  E  E  E  E  E  E  E  E   
--------------------0-----------------|
--5--------4-----6--------1-----------|
-----0--5-----0--------0--------0--5--|
-----------------------------2--------|
--3--------2--------3-----------------|
--------------------------------------|


  E  E  E  E  E  E  E  E  E  S S  S  S S  S  
--------------------------------------------|
--3-----0--2--------3-----0------------1h-2-|
-----0--------0--3-----0-------0h-2h-4------|
--0-----------------0-----------------------|
-----------4-----------------2--------------|
--------------------------------------------|


  E  E  E  E  E  E  E  E  E  E  E  E     E  E  E  E  E  E  E  E  E  E  E  E   
-----------------1--0-----------------|--3-----0--3--------3--------3--5-----|
--3-----0-----0-----------1--------1--|--1--------0-----3--------2-----------|
-----0-----0-----------0--------0-----|-----0--------0-----3--0-----0-----L--|
--0-----------------------------------|--------------------------------------|
--------------------3-----------------|--3--------2--------1-----------------|
-----------3-----------------3--------|--------------------------------------|


    E  E  E  E  E  E  E  E  E  E  E.  S    E  E  E  E  E  E  S S E.  S Q.      
--3g1-----------------1--------1--3---1-|--0--------------1--0-0-0------------|
----3-----3--2-----2--1-----1-----------|--------1-------------------0-1------|
-------2--------2--------2--------0-----|-----0-----0--2----------------------|
----0-----------------------------------|--------------------2----------------|
-------------4--------3--------2--------|--3---------------------------3------|
----------------------------------------|-----------3-------------------------|


  Q       E  E  E  E  E  E  E  E  E.  S  S  S S  S  
-------|--------------------0----------------------|
--L----|--5--------4--------------------------1h-3-|
--0----|-----0--5-----0--4-----0--5---0h-2h-4------|
-------|-------------------------------------------|
--L----|--3--------2--------3----------------------|
-------|-------------------------------------------|


  E  E  E  E  E  E  E  E  E  E  E  E   
--------------------0-----------------|
--5--------4-----6--------1-----------|
-----0--5-----0--------0--------0--5--|
-----------------------------2--------|
--3--------2--------3-----------------|
--------------------------------------|


  E  E  E  E  E  E  E  E  E  S S  S  S S  S  
--------------------------------------------|
--3-----0--2--------3-----0------------1h-2-|
-----0--------0--3-----0-------0h-2h-4------|
--0-----------------0-----------------------|
-----------4-----------------2--------------|
--------------------------------------------|


  E  E  E  E  E  E  E  E  E  E  E  E     E  E  E  E  E  E  E  E  E  E  E  E   
-----------------1--0-----------------|--3-----0--3--------3--------3--5-----|
--3-----0-----0-----------1--------1--|--1--------0-----3--------2-----------|
-----0-----0-----------0--------0-----|-----0--------0-----3--0-----0-----L--|
--0-----------------------------------|--------------------------------------|
--------------------3-----------------|--3--------2--------1-----------------|
-----------3-----------------3--------|--------------------------------------|


    E  E  E  E  E  E  E  E  E  E  E.  S    E  E  E  E  E  E  S S E.  S Q.      
--3g1-----------------1--------1--3---1-|--0--------------1--0-0-0------------|
----3-----3--2-----2--1-----1-----------|--------1-------------------0-1------|
-------2--------2--------2--------0-----|-----0-----0--2---------------0------|
----0-----------------------------------|--------------------2----------------|
-------------4--------3--------2--------|--3---------------------------3------|
----------------------------------------|-----------3-------------------------|


  H          
-----------||
--L--------||
--L--------||
-----------||
--L--------||
-----------||




Duration Legend
---------------
W - whole
H - half
Q - quarter
E - 8th
S - 16th
T - 32nd
X - 64th
. - note dotted
|-n-|  - n-tuplets


Tablature Legend
----------------
L - tied note
x - dead note
g - grace note
(n) - ghost note
> - accentuded note
NH - natural harmonic
AH - artificial harmonic
TH - tapped harmonic
SH - semi harmonic
PH - pitch harmonic
h - hammer on
p - pull off
b - bend
br - bendRelease
pb - preBend
pbr - preBendRelease
brb - bendReleaseBend
\n/ - tremolo bar dip
\n - tremolo bar dive
-/n - tremolo bar Release up
/n\ - tremolo bar inverted dip
/n - tremolo bar return
-\n - tremolo bar Release down
S - shift slide
s - legato slide
/ -  slide into from below or out of upwards
\ -  slide into from above or out of downwards
~ - vibrato
W - wide vibrato
tr - trill
TP - tremolo picking
T - tapping
S - slap
P - pop
< - fade in
^ - brush up
v - brush down
Login or Register to remove this ad.

2 comments on Underwater

Very nice and playable!

5

Very nice and playable!

Love it!

5

Best underwater tab on the internet. Thanks! :)