Ads

Overworld (Super Mario Brothers) Guitar Tab

Submitted: Apr 20, 2011 by ellondu

4.833335
Average: 4.8 (6 votes)
Download | Listen
Game: Super Mario Brothers
Composer(s): Koji Kondo
Style: Transcription
Series: Mario

AutoScroll: Slow | Medium | Fast
e-12-12-12---12-15--------------------
B----------13-------------------------
G------------------12-----------------
D-------------------------------------
A-------------------------------------
E-------------------------------------

e-8-----5-765----0-3-5--1-3-0---------  (X2)
B---8-5--------1--------------1-3-0---  
G-------------------------------------
D-------------------------------------
A-------------------------------------
E-------------------------------------

e-3-2-1----0--------------------------
B-------4--------1---1-3--------------
G--------------2---2------------------
D------------3------------------------
A-------------------------------------
E-------------------------------------

e-3-2-1----0---888--------------------
B-------4------666--------------------
G-------------------------------------
D-------------------------------------
A-------------------------------------
E-------------------------------------

e-3-2-1----0--------------------------
B-------4--------1---1-3---4-3-1------
G--------------2---2------------------
D------------3------------------------
A-------------------------------------
E-------------------------------------

e-----------0-------------------------
B-1-1-1-1-3--1------------------------
G-------------2-0---------------------
D-------------------------------------
A-------------------------------------
E-------------------------------------

e-----------0-------------0-----------
B-1-1-1-1-3-----1-1-1-1-3---1---------
G-----------------------------2-0-----
D-------------------------------------
A-------------------------------------
E-------------------------------------

e-12-12-12----12-15-------------------
B----------13-------------------------
G------------------12-----------------
D-------------------------------------
A-------------------------------------
E-------------------------------------

e-8-----5-765----0-3-5--1-3-0---------  (X2)
B---8-5--------1--------------1-3-0---  
G-------------------------------------
D-------------------------------------
A-------------------------------------
E-------------------------------------

e-0-------1-1----5-5-5-3-1-0----------
B--1-----------0-------------1--------
G---0-1-2----2-----------------2-0----
D-------------------------------------
A-------------------------------------
E-------------------------------------

e-0--------1-1-------1-1-1-0---------- (X2)
B---1--------------0---------3-1------
G----0-1-2-----2----------------------
D--------------------------------2-2--
A------------------------------------3
E-------------------------------------

Then Play a C Major Chord to end it off.
Login or Register to remove this ad.

1 comment on Overworld

Recording

You can see me playing this theme here to see how great it sounds ^^
http://www.gametabs.net/recording/reiatsu0/main-theme-overworld