Ads

Death & Game Over (Super Mario Brothers) Guitar Tab

Submitted: Mar 28, 2013 by Colin_spade

5
Average: 5 (5 votes)
Download | Listen
Game: Super Mario Brothers
Composer(s): Koji Kondo
Style: Arrangement
Series: Mario

AutoScroll: Slow | Medium | Fast
                              death - game over                                 


Track 1
                                                    |--------3--------|         
     S S E  Q    H           Q    Q    Q    Q       H        H        H         
E||-----------------------|-------1---------1----|--1--------0-----------------|
B||--1-2-3----------------|--0----3---------3----|--3--------1--------3--------|
G||-----------------------|--0--------------0----|--0--------2--------4--------|
D||-----------------------|----------------------|-----------------------------|
A||-----------------------|----------------------|-----------------------------|
E||-----------------------|----------------------|-----------------------------|


  Q    Q    Q    Q       Q    Q    H           Q    Q    Q    Q     
----------------------|---------------------|----------------------|
--1-------------------|---------------------|--1-------------------|
--0---------0---------|---------------------|--0--------------0----|
-------2---------2----|---------------------|--2--------------2----|
----------------------|--3------------------|-----------------3----|
----------------------|---------------------|----------------------|


                       |--------3--------|                              
  H        H           H        H        H           H        H         
--------------------|-----------------------------|--------------------|
--------------------|-----------0-----------------|--------------------|
--------------------|--2-----------------2--------|--1--------3--------|
-----------2--------|--3--------------------------|--3-----------------|
-----------3--------|-----------------------------|--4-----------------|
-----------3--------|-----------------------------|--------------------|


  H        Q     Q       W                  
----------------------|-------------------||
----------------------|-------------------||
--1--------0----------|--0----------------||
--3--------2p----0----|--2----------------||
--5--------3----------|--3----------------||
----------------------|-------------------||




Duration Legend
---------------
W - whole
H - half
Q - quarter
E - 8th
S - 16th
T - 32nd
X - 64th
. - note dotted
|-n-|  - n-tuplets


Tablature Legend
----------------
L - tied note
x - dead note
g - grace note
(n) - ghost note
> - accentuded note
NH - natural harmonic
AH - artificial harmonic
TH - tapped harmonic
SH - semi harmonic
PH - pitch harmonic
h - hammer on
p - pull off
b - bend
br - bendRelease
pb - preBend
pbr - preBendRelease
brb - bendReleaseBend
\n/ - tremolo bar dip
\n - tremolo bar dive
-/n - tremolo bar Release up
/n\ - tremolo bar inverted dip
/n - tremolo bar return
-\n - tremolo bar Release down
S - shift slide
s - legato slide
/ -  slide into from below or out of upwards
\ -  slide into from above or out of downwards
~ - vibrato
W - wide vibrato
tr - trill
TP - tremolo picking
T - tapping
S - slap
P - pop
< - fade in
^ - brush up
v - brush down
Login or Register to remove this ad.