Ads

Warp Island (Super Mario Brothers 3) Guitar Tab

Submitted: Jun 02, 2009 by Alexander (Last updated: Feb 04, 2010)

0
Download | Listen
Game: Super Mario Brothers 3
Composer(s): Koji Kondo
Style: Arrangement, Fingerstyle
Series: Mario

This song is also called Clouds

AutoScroll: Slow | Medium | Fast
Warp Island from Super Mario Brothers 3. Composed by Koji Kondo.

Tabbed by Alexander on June 1st, 2009, with the guitar, in the study.


e|----3---------3-|----4-------6---|3-------------3-|------------6-54|
B|----------5-5---|----------6-6---|----------5-5---|6---------6-6---|
G|------5-5-------|6-----6-6-------|------5-5-------|------6-6-------|
D|--5-5-------5---|--6-6-----------|--5-5-------5---|--6-6-----------|
A|3---------------|4---------------|3---------------|4---------------|
E|----------------|----------------|----------------|----------------|


e|3-------------3-|----4-------6---|3-------------3-|------------6-54|
B|----------5-5---|----------6-6---|----------5-5---|6---------6-6---|
G|------5-5-------|6-----6-6-------|------5-5-------|------6-6-------|
D|--5-5-------5---|--6-6-----------|--5-5-------5---|--6-6-----------|
A|3---------------|4---------------|3---------------|4---------------|
E|----------------|----------------|----------------|----------------| repeat last four measures endlessly.




-Simpler version-

e|----3-----------|----4-------6---|3-----------3---|----------------|
B|----------------|----------------|----------------|6---------------|
G|----------------|------------6---|----------------|----------------|
D|5-----------5---|6---------------|----5-----------|----6-------8-76|
A|3-----------3---|4---------------|3---------------|4---------------|
E|----------------|----------------|----------------|----------------| repeat endlessly.
Login or Register to remove this ad.

1 comment on Warp Island

Thats friggen awsome. woo.

Thats friggen awsome. woo.