Overworld 2 (Super Mario Brothers 3) Guitar Tab

Submitted: Jun 23, 2013 by JordanVS

5
Average: 5 (7 votes)
Download | Listen
Game: Super Mario Brothers 3
Composer(s): Koji Kondo
Style: Arrangement, Artificial harmonics, Fingerstyle
Series: Mario

AutoScroll: Slow | Medium | Fast
Overworld 2                                         
Athletic Theme
Super Mario Bros.3
Koji Kondo
JordanVS


          |--3--|  |--3--|  |-----3-----|                                               
     Q    E  E  E  E  E  E  E  H        E      S  S  S  S  S  S  S  S    S S S S E  E   
E||--3----1--------------------------------|--14-15-15-15-------------|----------------|
B||----------3--0--------------------------|--16-17-17-17-------------|----------------|
G||----------------0-----------------------|--------------11-12-12-12-|-------------0--|
D||-------------------3--0-----------------|--------------13-14-14-14-|--4-5-4-5-5--0--|
A||-------------------------2--------------|--------------------------|--6-7-6-7-7-----|
E||----------------------------3-----------|--------------------------|-------------3--|

*Segno

  S S S S S S S S    S S S E  S S S    S S S S S S S S    S S S S S   S   S S  
--2-3-3-2-3-3-2-3-|--5-4-5-7--5-3-1-|--2-3-3-2-3-3-2-3-|--5-4-5-7-------<>3---|
------------------|-----------------|------------------|------------<>3-------|
------------------|-----------------|------------------|----------------------|
----------2---2---|--3---3-5--------|----------2---2---|--3---3-5-------------|
--3---3-----------|-----------------|--3---3-----------|----------------------|
------------------|-----------------|------------------|----------------------|


  S S S S S S S S    S S S E  S S S    S S S E  S S S    S S S E  S S S  
--2-3-3-2-3-3-2-3-|--5-4-5-7--5-3-1-|--0-1-3-5--3-1-0-|----0-1-3--1-0---|
------------------|-----------------|-----------------|--3------------3-|
------------------|-----------------|--2--------------|--0--------------|
----------2---2---|--3---3-5--------|--------0--0-0-0-|-----------------|
--3---3-----------|-----------------|-----------------|--------3--3-3-3-|
------------------|-----------------|-----------------|-----------------|


  S S S E  S S S    E.  E  S S S S S    S S S S S S S S    S S S S S S S S  
------0-1--0-----|-------------------|--------------5---|--------------3---|
--1-3--------3-0-|--1----------1-0---|----0-1-----------|------0-----------|
-------------0-0-|---------0-------3-|--2-----2---2---2-|--0-2---0---0---0-|
--3-----0--0-----|------3----2-------|--3-------3-------|--2-------2-------|
-----------------|--3---4----3-------|------------------|------------------|
-----------------|-------------------|------------------|------------------|


  S S S S S S S S    S S S S E  E     S S S S S S S S    S S S S S S S S  
--------------1---|--------0-1--3--|--------------5---|--------------3---|
------------------|-------------0--|----0-1-----------|------0-----------|
----0-2-----------|--------0-2-----|--2-----2---2---2-|--0-2---0---0---0-|
--3-----3---3---3-|--2-1-2---0--2--|--3-------3-------|--2-------2-------|
--5-------5-------|--3-2-3---------|------------------|------------------|
------------------|----------------|------------------|------------------|

                                                        

                                                         *Da Segno
  S S S S S S S S    S S S S S S S S    S S S S S S S S    E  E  E  Q    E  E  E   
--------1---0-1-2-|--3-------L-------|------------------|-------------------------|
------------0-1-2-|--3-------L-------|------------------|----------------------0--|
----0-2-----------|----0-0-0-0-----L-|------------------|----------------0--2-----|
--3-----3---------|------------------|------------------|-----0--2--3-------------|
--5---------------|------------------|------------0-1-2-|--3----------------------|
------------------|----------3-3-3-3-|--2-3-2-3-4-------|-------------------------|


                       |--3--|  |--3--|              
  H        H           E  E  E  E  E  E  E  Q.       
--------------------|--------0--------3--L---------||
--1-----------------|-----------1--3---------------||
--------------------|-----0------------------------||
--------------------|--2---------------------------||
-----------3--------|------------------------------||
--------------------|------------------------------||




Duration Legend
---------------
W - whole
H - half
Q - quarter
E - 8th
S - 16th
. - note dotted
|-n-|  - n-tuplets


Tablature Legend
----------------
L - tied note
<> - artificial harmonic
Login or Register to remove this ad.

2 comments on Overworld 2

Awesome AND playable! Dat

5

Awesome AND playable! Dat tempo is gonna kill me thou :I

Awesome!!!

Great song, full of joy, those floating woods were a pain sometimes, Thanks! :D