Ads

Underworld (Super Mario Brothers 2) Guitar Tab

Submitted: Jan 17, 2010 by LTRobson (Last updated: Jan 18, 2010)

5
Average: 5 (3 votes)
Download | Listen
Game: Super Mario Brothers 2
Composer(s): Koji Kondo
Style: Alternate picking, Transcription
Series: Mario

AutoScroll: Slow | Medium | Fast
Super Mario Bros. 2 - Underworld (NES)
Tabbed by LTRobson 16/06/07

Standard tuning

|----------4----5------------4----3-|
|----------4----5------------4----3-|
|-----------------------------------|
|-------3------------------3--------|
|----3------------------3-----------|
|-1------------------1--------------|


|-8----6--------4----6------------------------------------|
|-6----4----6---4----6---4--6-----------------------------|
|-----------5------------3--5--5----7----8----------1-----|
|------------------------------3----5----6------------3-1-|
|------------------------------3----5----6----------------|
|---------------------------------------------------------|
Login or Register to remove this ad.

1 comment on Underworld

Ooh I like this song :-)

5

Ooh I like this song :-)

Brings back memories.