Overworld (Super Mario Brothers 2) Guitar Tab

Submitted: Jul 17, 2013 by Bessem

5
Average: 5 (3 votes)
Download | Listen
Game: Super Mario Brothers 2
Composer(s): Koji Kondo
Style: 2 or more instruments, Transcription
Series: Mario

AutoScroll: Slow | Medium | Fast
the second track can be played on bass too

Piste 1
     Q    E  Q    E     Q    E  Q    E     Q.     Q.        H.            
E||-------3--2----1--|------------------|---------3------|---------------|
B||------------------|--3----0----------|----------------|---------------|
G||------------------|----------2----1--|--0-------------|--0------------|
D||------------------|------------------|----------------|---------------|
A||------------------|------------------|----------------|---------------|
E||------------------|------------------|----------------|---------------|


    Q     E  Q    E     Q     E  Q    E     E  E  E  Q     E     H.            
|--------------------|-------------------|-----------7--------|---------------|
|---8-------------8--|--L-------------8--|--------7-------10--|--L------------|
|*-----------9-------|-----------9-------|-----8--------------|---------------|
|*-------10----------|-------10----------|--9-----------------|---------------|
|--------------------|-------------------|--------------------|---------------|
|--------------------|-------------------|--------------------|---------------|


  Q    E  Q    E     Q    E  Q    E     E  E  E  Q     E     H        E  E   
------------------|------------------|-----------7--------|--------------7--|
--8------------8--|--L------------8--|--------8-------10--|--L--------L-----|
----------7-------|----------7-------|-----9--------------|-----------------|
-------8----------|-------8----------|--7-----------------|-----------------|
------------------|------------------|--------------------|-----------------|
------------------|------------------|--------------------|-----------------|


  Q    E  Q    E     Q    E  Q    E     Q    E  Q    E     Q    E   Q    E   
--8----7--8----5--|--L----8--7----5--|------------------|-------------------|
------------------|------------------|--8----7--8----5--|--L-------------5--|
------------------|------------------|------------------|-------6h--7-------|
------------------|------------------|------------------|-------------------|
------------------|------------------|------------------|-------------------|
------------------|------------------|------------------|-------------------|


  Q    E  Q    E     Q    E  Q    E     H.                              
------------------|------------------|---------------|----------------||
--6----5--6-------|-------6--5-------|---------------|----------------||
---------------7--|--L------------7--|--5------------|---------------*||
------------------|------------------|---------------|---------------*||
------------------|------------------|---------------|----------------||
------------------|------------------|---------------|----------------||


  Q    Q    Q       Q    E   Q    E            Q    E  Q    E   
-----------------|----------------8--|-----|-------------------|
-----------------|--8-------10-------|-----|--10----8----------|
-------9---------|-------------------|-----|-----------9----5--|
-----------------|-------------------|-----|-------------------|
-----------------|-------------------|-----|-------------------|
-----------------|-------------------|-----|-------------------|


  Q    E  Q    E     Q    Q.     E     Q    E  E  E  E   
------------------|-----------------|-------------------|
------------------|-----------------|-------------------|
--7----9--7----9--|--7-----------7--|----------7-----7--|
------------------|-------7---------|--L----7-----7-----|
------------------|-----------------|-------------------|
------------------|-----------------|-------------------|


  S S S S S S S S S S S S    Q    E  Q    E     Q    E  Q      E   
--------------------------|------------------|--------------------|
--------------------------|------------------|---------------/10--|
----7---7---7---7---7---7-|--7----9--7----9--|--7----9------------|
--7---7---7---7---7---7---|------------------|--------------------|
--------------------------|------------------|--------------------|
--------------------------|------------------|--------------------|


  Q    E   Q    E     Q    E  Q    E     Q.     E   E   E    
-------------------|------------------|---------------------|
--L----8--10----8--|------------------|---------------------|
-------------------|--9----7--5----9--|--L------0h--9p--0h--|
-------------------|------------------|---------------------|
-------------------|------------------|---------------------|
-------------------|------------------|---------------------|


  E   E   S  S  S  S  S  S  S  S    Q    Q    Q       Q    Q    Q     
---------------------------------|-----------------|-----------------|
---------------------------------|-------8---------|-----------------|
--9p--0h--9p-0h-9p-0h-9p-0h-9p-0-|------------8----|-----------------|
---------------------------------|-----------------|--9----7----5----|
---------------------------------|-----------------|-----------------|
---------------------------------|-----------------|-----------------|


  Q    Q    Q       Q    E   Q    E     H.               Q    E  Q    E   
-----------------|----------------8--|---------------|-------------------|
-----------------|--8-------10-------|---------------|--10----8----------|
-------9---------|-------------------|---------------|-----------9----5--|
-----------------|-------------------|---------------|-------------------|
-----------------|-------------------|---------------|-------------------|
-----------------|-------------------|---------------|-------------------|


  Q    E  Q    E     Q    Q.     E     Q    E  E  E  E   
------------------|-----------------|-------------------|
------------------|-----------------|-------------------|
--7----9--7----9--|--7-----------7--|----------7-----7--|
------------------|-------7---------|--L----7-----7-----|
------------------|-----------------|-------------------|
------------------|-----------------|-------------------|


  S S S S S S S S S E  S    Q    E  Q    E     Q    E  Q     E   
-------------------------|------------------|-------------------|
-------------------------|------------------|---------------10--|
----7---7---7---7---7----|--7----9--7----9--|--7----9-----------|
--7---7---7---7---7------|------------------|-------------------|
-------------------------|------------------|-------------------|
-------------------------|------------------|-------------------|


  Q    E   Q    E      Q    E  Q     E     H        E  E     Q    E  Q    E   
-------------------|--------------------|-----------------|------------------|
-------8--10----8--|--10----8-----------|-----------------|------------------|
--L----------------|-----------9--------|-----------------|---------------5--|
-------------------|----------------10--|--------------4--|--5----6--7-------|
-------------------|--------------------|-----------------|------------------|
-------------------|--------------------|-----------------|------------------|


  E  H        E     E  E  H           Q    E  Q    E     Q    E  Q    E   
-----------------|-----------------|------------------|---------------7--|
-----------------|-----------------|--5----6--4----5--|--6----4--5-------|
--------------5--|-----------------|------------------|------------------|
-----------------|-----------------|------------------|------------------|
-----------------|-----------------|------------------|------------------|
-----------------|-----------------|------------------|------------------|


                                     |---3---|                                 
   Q.     Q.        Q.     Q.        E   E   E  E  Q    E     Q    E  Q    E   
----------4------|----------------|------------------------|------------------|
---L-------------|--6------5------|--3h--5p--3-------------|------------------|
-----------------|----------------|-------------5--4----5--|--7----5--4----5--|
-----------------|----------------|------------------------|------------------|
-----------------|----------------|------------------------|------------------|
-----------------|----------------|------------------------|------------------|


  E  H        E     Q    E  Q    E     Q    Q    Q       Q    E  Q     E   
-----------------|------------------|-----------------|-------------------|
-----------------|------------------|-----------------|---------------10--|
--------------5--|--4-------5-------|-------7---------|--6-------7--------|
--L--------------|------------------|-----------------|-------------------|
-----------------|------------------|-----------------|-------------------|
-----------------|------------------|-----------------|-------------------|


  E  Q    Q.        Q.      Q.         Q     E   Q     E   
-----------------|-----------------|----------------------|
----------7------|--8------10------|--12----11--12----12--|
--L--------------|-----------------|----------------------|
-----------------|-----------------|----------------------|
-----------------|-----------------|----------------------|
-----------------|-----------------|----------------------|


   Q    E   Q     E     Q    E  Q    E     Q    E  Q    E   
---------------------|------------------|------------------|
--10----9--10----10--|--9----8--9----9--|--8---------------|
---------------------|------------------|-------7--4-------|
---------------------|------------------|---------------5--|
---------------------|------------------|------------------|
---------------------|------------------|------------------|


    Q     E  Q    E     Q     E  Q    E     E  E  E  Q     E     H.            
|--------------------|-------------------|-----------7--------|---------------|
|---8-------------8--|--L-------------8--|--------7-------10--|--L------------|
|*-----------9-------|-----------9-------|-----8--------------|---------------|
|*-------10----------|-------10----------|--9-----------------|---------------|
|--------------------|-------------------|--------------------|---------------|
|--------------------|-------------------|--------------------|---------------|


  Q    E  Q    E     Q    E  Q    E     E  E  E  Q     E     H        E  E   
------------------|------------------|-----------7--------|--------------7--|
--8------------8--|--L------------8--|--------8-------10--|--L--------L-----|
----------7-------|----------7-------|-----9--------------|-----------------|
-------8----------|-------8----------|--7-----------------|-----------------|
------------------|------------------|--------------------|-----------------|
------------------|------------------|--------------------|-----------------|


  Q    E  Q    E     Q    E  Q    E     Q    E  Q    E     Q    E   Q    E   
--8----7--8----5--|--L----8--7----5--|------------------|-------------------|
------------------|------------------|--8----7--8----5--|--L-------------5--|
------------------|------------------|------------------|-------6h--7-------|
------------------|------------------|------------------|-------------------|
------------------|------------------|------------------|-------------------|
------------------|------------------|------------------|-------------------|


  Q    E  Q    E     Q    E  Q    E     H.                              
------------------|------------------|---------------|----------------||
--6----5--6-------|-------6--5-------|---------------|----------------||
---------------7--|--L------------7--|--5------------|---------------*||
------------------|------------------|---------------|---------------*||
------------------|------------------|---------------|----------------||
------------------|------------------|---------------|----------------||




Piste 2
     Q    E  Q    E     Q    E  Q    E     Q.     Q.        Q.     Q.      
E||------------------|------------------|----------------|----------------|
B||-------3--2----1--|------------------|---------3------|----------------|
G||------------------|--2---------------|----------------|----------------|
D||------------------|-------4--2----1--|--0-------------|--0------5------|
A||------------------|------------------|----------------|----------------|
E||------------------|------------------|----------------|----------------|


    Q.     Q.        Q.     Q.        Q.     Q.        Q.     Q.      
|-----------------|----------------|----------------|----------------|
|-----------------|----------------|----------------|----------------|
|*----------------|----------------|----------------|----------------|
|*---------5------|---------5------|---------5------|---------5------|
|---3-------------|--3-------------|--2-------------|--2-------------|
|-----------------|----------------|----------------|----------------|


  Q.     Q.        Q.     Q.        Q.     Q.        Q.     Q.      
----------------|----------------|----------------|----------------|
----------------|----------------|----------------|----------------|
----------------|----------------|----------------|----------------|
---------5------|---------5------|---------5------|---------5------|
--1-------------|--1-------------|--0-------------|--0-------------|
----------------|----------------|----------------|----------------|


  Q.     Q.        Q.     Q.        Q.     Q.        Q.     Q.      
----------------|----------------|----------------|----------------|
----------------|----------------|----------------|----------------|
----------------|----------------|----------------|----------------|
---------3------|---------4------|---------5------|---------7------|
----------------|----------------|----------------|----------------|
--1-------------|--2-------------|--3-------------|--5-------------|


  Q.     Q.        Q.     Q.        Q.     Q.        Q.     Q.        
----------------|----------------|----------------|-----------------||
----------------|----------------|----------------|-----------------||
----------------|----------------|----------------|----------------*||
---------3------|----------------|----------------|---------5------*||
--5-------------|---------5------|--3-------------|--3--------------||
----------------|--3-------------|---------3------|-----------------||


  Q.     Q.        Q.     Q.        Q.     Q.        Q.     Q.      
----------------|----------------|----------------|----------------|
----------------|----------------|----------------|----------------|
----------------|----------------|----------------|----------------|
----------------|--2------5------|--7------5------|--2-------------|
--3------5------|----------------|----------------|---------3------|
----------------|----------------|----------------|----------------|


  Q.     Q.        Q.     Q.        Q.     Q.        Q.     Q.      
----------------|----------------|----------------|----------------|
----------------|----------------|----------------|----------------|
----------------|----------------|----------------|----------------|
---------2------|--4-------------|----------------|----------------|
--5-------------|----------------|--5------3------|--2-------------|
----------------|---------5------|----------------|---------5------|


  Q.     Q.        Q.     Q.        Q.     Q.        Q.     Q.      
----------------|----------------|----------------|----------------|
----------------|----------------|----------------|----------------|
----------------|----------------|----------------|----------------|
---------5------|--3-------------|----------------|----------------|
----------------|---------5------|--2-------------|---------2------|
--3-------------|----------------|---------3------|--5-------------|


  Q.     Q.        Q.     Q.        Q    E  Q.        Q.     Q.      
----------------|----------------|-----------------|----------------|
----------------|----------------|-----------------|----------------|
----------------|----------------|-----------------|----------------|
----------------|----------------|-----------------|----------------|
--3------4------|--5------6------|--7--------------|---------2------|
----------------|----------------|-------7--5------|--3-------------|


  Q.     Q.        Q.     Q.        Q.     Q.        Q.     Q.      
----------------|----------------|----------------|----------------|
----------------|----------------|----------------|----------------|
----------------|----------------|----------------|----------------|
----------------|--2------5------|--7------5------|--2-------------|
--3------5------|----------------|----------------|---------3------|
----------------|----------------|----------------|----------------|


  Q.     Q.        Q.     Q.        Q.     Q.        Q.     Q.      
----------------|----------------|----------------|----------------|
----------------|----------------|----------------|----------------|
----------------|----------------|----------------|----------------|
---------2------|--4-------------|----------------|----------------|
--5-------------|----------------|--5------3------|--2-------------|
----------------|---------5------|----------------|---------5------|


  Q.     Q.        Q.     Q.        Q.     Q.        Q.     Q.      
----------------|----------------|----------------|----------------|
----------------|----------------|----------------|----------------|
----------------|----------------|----------------|----------------|
---------5------|--3-------------|----------------|----------------|
----------------|---------5------|--2-------------|---------2------|
--3-------------|----------------|---------3------|--5-------------|


  Q.     Q.        Q.     Q.        Q    Q    E  E     Q.     Q.      
----------------|----------------|------------------|----------------|
----------------|----------------|------------------|----------------|
----------------|----------------|------------------|----------------|
----------------|----------------|------------------|----------------|
--3-------------|---------2------|--3------------3--|--L-------------|
---------3------|--5-------------|------------------|----------------|


  Q.     Q.        Q.     Q.        Q.     Q.        Q.     Q.      
----------------|----------------|----------------|----------------|
----------------|----------------|----------------|----------------|
----------------|----------------|----------------|----------------|
---------9------|--6-------------|----------------|---------6------|
--7-------------|---------8------|--7------5------|----------------|
----------------|----------------|----------------|--7-------------|


  Q.     Q.        Q.     Q.        Q    E  Q.        Q.     Q.      
----------------|----------------|-----------------|----------------|
----------------|----------------|-----------------|----------------|
----------------|----------------|-----------------|----------------|
----------------|----------------|-----------------|----------------|
----------------|---------5------|--5----5---------|----------------|
--5------7------|--8-------------|----------8------|--7------5------|


  Q.     Q.        Q.     Q.        Q    E  Q.        Q.     Q.      
----------------|----------------|-----------------|----------------|
----------------|----------------|-----------------|----------------|
----------------|----------------|-----------------|----------------|
----------------|--4------7------|-----------------|---------4------|
--5------7------|----------------|--5----5---------|--5-------------|
----------------|----------------|----------5------|----------------|


  Q.     Q.        Q.     Q.        Q.     Q.        Q.     Q.      
----------------|----------------|----------------|----------------|
----------------|----------------|----------------|----------------|
----------------|----------------|----------------|----------------|
--5------3------|----------------|----------------|----------------|
----------------|--5------2------|--5------2------|----------------|
----------------|----------------|----------------|--5------3------|


    Q.     Q.        Q.     Q.        Q.     Q.        Q.     Q.      
|-----------------|----------------|----------------|----------------|
|-----------------|----------------|----------------|----------------|
|*----------------|----------------|----------------|----------------|
|*---------5------|---------5------|---------5------|---------5------|
|---3-------------|--3-------------|--2-------------|--2-------------|
|-----------------|----------------|----------------|----------------|


  Q.     Q.        Q.     Q.        Q.     Q.        Q.     Q.      
----------------|----------------|----------------|----------------|
----------------|----------------|----------------|----------------|
----------------|----------------|----------------|----------------|
---------5------|---------5------|---------5------|---------5------|
--1-------------|--1-------------|--0-------------|--0-------------|
----------------|----------------|----------------|----------------|


  Q.     Q.        Q.     Q.        Q.     Q.        Q.     Q.      
----------------|----------------|----------------|----------------|
----------------|----------------|----------------|----------------|
----------------|----------------|----------------|----------------|
---------3------|---------4------|---------5------|---------7------|
----------------|----------------|----------------|----------------|
--1-------------|--2-------------|--3-------------|--5-------------|


  Q.     Q.        Q.     Q.        Q.     Q.        Q.     Q.        
----------------|----------------|----------------|-----------------||
----------------|----------------|----------------|-----------------||
----------------|----------------|----------------|----------------*||
---------3------|----------------|----------------|---------5------*||
--5-------------|---------5------|--3-------------|--3--------------||
----------------|--3-------------|---------3------|-----------------||
Login or Register to remove this ad.