Ads

Character Select (Super Mario Brothers 2) Guitar Tab

Submitted: Feb 03, 2010 by LTRobson (Last updated: Feb 04, 2010)

4.666665
Average: 4.7 (3 votes)
Download | Listen
Game: Super Mario Brothers 2
Composer(s): Koji Kondo
Style: Arrangement, Fingerstyle, Transcription
Series: Mario

AutoScroll: Slow | Medium | Fast
 Super Mario Bros. 2 - Character Select (NES)
 Tabbed by LTRobson 03/02/10
 
 Standard tuning

 -8-8--8--8--8-8-8--8--8--8-8-8--8--8--12--10-
 -8-8--8--8--8-7-7--7--7--7-6-6--6--6--12--12-
 ---------------------------------------------
 ---------------------------------------------
 ---------------------------------------------
 ---------------------------------------------

 -12----12----12-8----------8-----8-----8--5------
 -------------------10p8----------------------7p5-
 -12----12----12-9----------11----11----11-7--5---
 -------------------10----------------------------
 -------------------------------------------------
 -------------------------------------------------

 -12----12----12-------12-12-8-
 ----------------13-10---------
 -10----10----10-10-10-12-12-9-
 ------------------------------
 ------------------------------
 ------------------------------
Login or Register to remove this ad.