Ads

Birdo (Super Mario All-Stars) Guitar Tab

Submitted: Feb 22, 2011 by quinnpm

5
Average: 5 (1 vote)
Download | Listen
Game: Super Mario All-Stars
Composer(s): Koji Kondo
Style: Transcription
Series: Mario

AutoScroll: Slow | Medium | Fast
Title: Birdo Fight Theme
Game: Super Mario Brothers
Composer: Koji Kondo






E-----------------------------------------
B----10-10-10-10-10-10-10-10-10-10-10-10--
G----7--8--8--7--8--8--7--8--8--7--8--8---
D-----------------------------------------
A-----------------------------------------
E-----------------------------------------




----------------------------------------------------
-9-9-9-9-9-9-9-9-9-9-9-9-12-12-12-12-12-12-12-12-12-
-6-7-7-6-7-7-6-7-7-6-7-7-9--10-10-9--10-10-9--10-10-
----------------------------------------------------
----------------------------------------------------
----------------------------------------------------




------------------------------------
11-11-11-11-11-11-11-11-11-11-11-11-
8--9--9--8--9--9--8--9--9--8--9--9--
------------------------------------
------------------------------------
------------------------------------








---------15-15-13-12
--------------------
13-13-13------------
--------------------
--------------------
--------------------






Login or Register to remove this ad.

1 comment on Birdo

lol, cool. :3

lol, cool. :3