Piranha Plant's Lullaby (Super Mario 64) Guitar Tab

Submitted: Mar 24, 2019 by FocusShallNotFail (Last updated: Apr 14, 2019)

5
Average: 5 (1 vote)
Download | Listen
Game: Super Mario 64
Composer(s): Koji Kondo
Style: Arrangement, Fingerstyle
Series: Mario

Click here for a video example.

AutoScroll: Slow | Medium | Fast
Title: Super Mario 64 - Piranha Plant's Lullaby
Author: Arrangement:Eduardo Barelli


E|-7----------|-5----------|-2----------|------------|------0----7----|-5-----------------|
B|-5----------|-7----------|-3----------|-0-----0----|-1--------------|-5---------5---7---|
G|-5----------|-5----------|-4----------|-7----------|-2--------------|-5-----------------|
D|------------|------------|------------|-5----------|----------------|-------------------|
A|-3----------|-5----------|-2----------|-7----------|-0--------------|-5-----------------|
E|------------|------------|------------|------------|----------------|-------------------|


E|------------|----------------|-7----------|-5----------|-10---------|-3----------|
B|-3----------|----------------|-5----------|-7----------|-12---------|-3-----0----|
G|-4----------|------2----4----|-5----------|-7----------|------------|-4----------|
D|-5----------|-5--------------|------------|------------|------------|-2----------|
A|------------|----------------|-3----------|-5----------|------------|------------|
E|------------|----------------|------------|------------|-7----------|------------|


E|------0----7----|-5-------------|-3-------------|------------|-7---7---7---7---7---7---|
B|-1--------------|-7-----5---7---|---------------|------------|-5-----------------------|
G|-2--------------|-5-------------|-------2---4---|-0----------|-------------------------|
D|----------------|---------------|---------------|------------|-------------------------|
A|-0--------------|-5-------------|---------------|------------|-3-----------------------|
E|----------------|---------------|-3-------------|------------|-------------------------|


E|-7---7---5-----|-5---5---5---5---5---5---|-5---5---3-----|-3---3---3---3---3---3---|
B|---------------|-3-----------------------|---------------|-1-----------------------|
G|---------------|-------------------------|---------------|-------------------------|
D|---------------|-------------------------|-2-------------|-------------------------|
A|-5-------------|-2-----------------------|---------------|-0-----------------------|
E|---------------|-------------------------|---------------|-------------------------|


E|-3---3---2---------|------------|----------------|-7---7---7---7---7---7---|-7---7---5-----|
B|--------------5----|------3-----|----------------|-5-----------------------|---------------|
G|-------------------|-4----------|----------------|-------------------------|---------------|
D|-0-----------------|-5----------|----------------|-------------------------|---------------|
A|-------------------|------------|----------------|-3-----------------------|-3-------------|
E|-------------------|------------|-3----5----7----|-------------------------|---------------|


E|-8---8---8---8---8---8---|-8---8---7-----|-10--10--10--10--10--10--|-10--10--8----10---|
B|-7-----------------------|---------------|-------------------------|-------------------|
G|-------------------------|---------------|-10----------------------|-------------------|
D|-------------------------|---------------|-------------------------|-------------------|
A|-------------------------|-7-------------|-8-----------------------|-8-----------------|
E|-7-----------------------|---------------|-------------------------|-------------------|


E|-12---------|-8----------|
B|-9----------|-8----------|
G|-9----------|-8----------|
D|------------|------------|
A|-7----------|-6----------|
E|------------|------------|



Login or Register to remove this ad.

1 comment on Piranha Plant's Lullaby

Perfect except for that stretch. xD

5

That 10 12 0 0 0 7 hurts haha. Other than that it's perfect and easier to play than the other one on Gametabs, thanks a lot! :)