Ads

Peach's Castle (Super Mario 64) Guitar Tab

Submitted: Aug 02, 2011 by 60NCA10

5
Average: 5 (14 votes)
Download | Listen
Game: Super Mario 64
Composer(s): Koji Kondo
Style: Arrangement, Fingerstyle
Series: Mario

This song is also called Inside the Castle Walls

AutoScroll: Slow | Medium | Fast



                        SUPER MARIO 64
                       "Peach's Castle"


                  Original song by: Koji Kondo
                   Fingerstyle Arrangement by:
                         Gonçalo Martins
                         August 2nd 2011





  Part 1 a)

     S. Q    T S. E  T S. E  T E     S. T S. T S. T E  E  E  E  E   
E||-------------------------------|------------0-------------------|
B||-------------------------------|-------1---------------------1--|
G||--0---------2-------0----------|--0-----------------------0-----|
D||----------------------------4--|-----------------------2--------|
A||--3---------3-------3----------|--3----3----3-------3-----------|
E||----------------------------3--|--------------------------------|


  S. Q    T S. E  T S. E  T E     S. T S. T S. E  T E  E  E  E   
-------------------------------|--------------------------------|
-------------------------------|-------0----3----------------0--|
------------0------------------|--------------------------0-----|
--3-----------------3-------2--|--3--------------------0--------|
--2---------2-------2----------|--2----2----2-------2-----------|
----------------------------3--|--------------------------------|


  S. Q    T S. E  T S. E  T E     S. T S. T S. Q    T E  E  E   
-------------------------------|-------------------------------|
-------------------------------|------------1------------0--1--|
-------------------------------|-------2--------------2--------|
--2---------3-------2-------1--|--2----------------------------|
--0---------0-------0----------|--0----0----0---------0--0--0--|
----------------------------0--|-------------------------------|


  E  E  E  Q    E  E  E     E  E  E  H        E   
-------------------------|-----------------------|
--3--1--3--1-------------|-----------------------|
----------------2--------|-----------------------|
--0-----0--0-------4--0--|--0--0-----0-----------|
----------------0--0--0--|--3--0--0--------------|
-------------------------|--------2--------------|




  Part 1 b)

     S. Q    T S. E  T S. E  T E     S. T S. T S. T E  E  E  E  E   
E||-------------------------------|------------0-------------------|
B||-------------------------------|-------1---------------------1--|
G||--0---------2-------0----------|--0-----------------------0-----|
D||----------------------------4--|-----------------------2--------|
A||--3---------3-------3----------|--3----3----3-------3-----------|
E||----------------------------3--|--------------------------------|


  S. Q    T S. E  T S. E  T E     S. T S. T S. E  T E  E  E  E   
-------------------------------|--------------------------------|
-------------------------------|-------0----3----------------0--|
------------0------------------|--------------------------0-----|
--3-----------------3-------2--|--3--------------------0--------|
--2---------2-------2----------|--2----2----2-------2-----------|
----------------------------3--|--------------------------------|


  S. Q    T S. E  T S. E  T E     S. T S. T S. Q    T E  E  E   
-------------------------------|-------------------------------|
-------------------------------|------------1------------0--1--|
-------------------------------|-------2--------------2--------|
--2---------3-------2-------1--|--2----------------------------|
--0---------0-------0----------|--0----0----0---------0--0--0--|
----------------------------0--|-------------------------------|


  E  E  E  Q    E  E  E     S. E  T S. Q    T E  E  S. T  
-------------------------|-------------------------------|
--3--1--3-------0-----0--|--1-------1---------1--1--1----|
-----------2-------2-----|-------------------------------|
--0-----0--0----0--------|-------------------------------|
-------------------------|--3-------3---------3-----3----|
-------------------3--3--|-----------------------3-------|




  Part 2

     H        E  E  E  E       E  E  E  E  E  E  E  E     E  E  E  E  E  E  E  E   
E||-----------------------||------------0--------------|--------------------------|
B||-----------------------||---------1--------1--0--1--|--0-----------------------|
G||--------------0-----0--||*-----0--------------------|-----2--2--2-----2--1--2--|
D||-----------------4-----||*--2-----------2-----------|--3-----------2-----------|
A||-----------------------||---3-----------------------|--------------------------|
E||-----------------3-----||---------------------------|--------------------------|


  E  E  E  E  E  E  E  E     E  E  E  E  E  E  E  E     E  E  E  E  E  E  E  E   
-----------1--------------|--------------------------|--------0--3-----1--0--3--|
--------3--------3--1--3--|--1--0--0--0-----0-----0--|-----0--------------------|
-----2--------------------|--0-----------------3-----|--0-----------1-----------|
--3-----------3-----------|--------------3-----------|--2-----------------------|
--5-----------------------|--------------------------|--------------------------|
--------------------------|--------------------------|--------------------------|


  E  E  E  E  E  E  E  E     E  E  E  Q    E  E  E     E  E  E  Q    E  E  E   
--1--0--0--0-----------0--|----------------------0--|----------------------0--|
-----------------3--1-----|--3-----3-------3--1-----|--3--1--3-------3--1-----|
--2-----------0-----------|-----5-----2-------------|-----------2-------------|
--------------------------|--4----------------------|--3----------------------|
--------------------------|-------------------------|-------------------------|
--------------------------|-------------------------|-------------------------|


  E  E  E  Q    E  E  E     E  E  E  E  E  E  E  E     
----------------------3--|--3--1--1--0--0------------||
--3--1--3----------1-----|-----------------3-----0---||
-----------0----0--------|--------------------2-----*||
--2----------------------|--0-----------------------*||
-------------------------|---------------------------||
-------------------------|--------------3------------|| x2




  Ending:

  C       C         F    F    C      
  S. E  T S. Q    T S. T S. T S. T   
-----------------------------------||
--1-------1---------1----1----1----||
--0-------0---------2----2----0----||
--2-------2---------3----3----2----||
--3-------3---------3----3----3----||
-----------------------------------||




Duration Legend
---------------
H - half
Q - quarter
E - 8th
S - 16th
T - 32nd
. - note dotted


Login or Register to remove this ad.

4 comments on Peach's Castle

nice

5

spot on!

congratulations

5

You nicely tabbed this tune. The rythm of the Part 1 is hard for me to understand & play, I m challenging it.

The rhythm isn't super weird,

The rhythm isn't super weird, it's just notated really oddly/poorly. Here's a clearer notation for the first line, follow suit with the rest:

     Q.        E   E   E   E   E     E    E    E   E   E  E  E  E   
E||-------------------------------|------------0-------------------|
B||-------------------------------|-------1---------------------1--|
G||--0---------2-------0----------|--0-----------------------0-----|
D||----------------------------4--|-----------------------2--------|
A||--3---------3-------3----------|--3----3----3-------3-----------|
E||----------------------------3--|--------------------------------|

It was actually pretty good.

5

It was actually pretty good.