Ads

File Select (Super Mario 64) Guitar Tab

Submitted: Jul 15, 2022 by Kabukibear (Last updated: Jul 20, 2022)

5
Average: 5 (2 votes)
Download | No audio :(
Game: Super Mario 64
Composer(s): Koji Kondo
Style: Fingerstyle, Natural harmonics
Series: Mario

AutoScroll: Slow | Medium | Fast
+File Select "Do You Remember?"                          
~Super Mario 64~
Composed by: Koji Kondo
Arranged by: Justin Lincoln

Standard Tuning(Capo 3)

     ^                           ^                       
     E   E  E  E  E  E  E  E     E   E   E  E  H         
E||---------------------------|-------------------------|
B||---------------------0-----|-------------------------|
G||--0h--2--2--L--L--------0--|--0h--2p--0--------------|
D||--0---------------0--------|--0----------0--L--------|
A||---------------------------|--3----------------------|
E||--3---------3--L-----------|-------------------------|


  ^                                                         
  E   E  E  E  E  S  S S  S S  S    E  E  E  E  E  E  Q     
---------------------------------|-------------------------|
----------------------------0h-1-|--0--1--0--3--0----------|
--0h--2--2--L--L-------0h-2------|--0--2--0--4--0-----0----|
--0---------------0h-2-----------|-------------------------|
--2---------2--L-----------------|--3--------3-----3-------|
---------------------------------|-------------------------|


  ^                           ^                          
  E   E  E  E  E  E  E  E     E  E    E  E  Q.     S  S  
---------------------------|----------------------------|
---------------------0-----|-----------------------0h-1-|
--0h--2--2--L--L--------0--|--2--0----------------------|
--0---------------0--------|--0-----0g2--0--L-----------|
---------------------------|--3-------------------------|
--0---------0--L-----------|----------------------------|


  E  E  E  E  E  E  S  S E     Q     E  E  E  E  E  S  S  
----------------------------|--------------------0-------|
--3--0--3--0--L-------------|-----------------------0h-1-|
--0--------------0-------0--|--2~----2--0----------------|
--------------------0h-2----|--0--------------0----------|
--2--------3--L-------------|----------------------------|
----------------------------|--2-----------0-------------|


  E  E  E  E  E  E  E  E     E  E    E  E  S S S S S S S S  
--------3--3--L--------0--|--2--3--3g5--3--L-2-0-----------|
--3--0-----3--L--3--------|--3----------0--L-----3-0-1-3---|
--0--------0--L-----0-----|--2----------0--L-------------0-|
--------------------------|--0----------2--L---------------|
--2--------3--L-----------|--------------------------------|
--------------------------|--------------------------------|


                         |--3--|                                    
    S  S  E  E  E  E  E  S  S  S E     E  E  E  E  E  E  S S  S  S  
|-----------------------------------|------------------------------|
|---3p-0h-3--3--3--3--0-------------|-----3--1--0--L-----0---------|
|*--0--------------------0h-2p-0----|--2-----2--0--L-------2p-0h-2-|
|*-------------------------------0--|--0-----0--0--L--0------------|
|---2-----------3--L----------------|------------------------------|
|-----------------------------------|--2-----2--0--L---------------|

                                 1st Ending--------
  E  S  S E  E  E  E  E    E     H        E  E  E  E   
------------------------------|-----------------------|
-------------0--L-------------|-----------0-----------|
--0-------0--------0--L-------|--------------2--0--2--|
-----0h-2----------------0g2--|--0--------------------|
--3---------------------------|--3--------------------|
------------------------------|-----------------------|


  E  E  E  E  E  E  E  E     E  E  E  E  E  E  E  E    
--------------------------|---------------------------|
--------------------------|--------------0------------|
--L-----2--0--------0-----|--------2--------2--0--2~--|
-----0-----------0-----0--|-----0-----0---------------|
--------------------------|---------------------------|
--3-----------3-----------|--2-----------2------------|


  E  E  E  E  E  E  E  E     E  E  E  E  E  E  E  E   
--------------------------|--------------------------|
-----------------3-----0--|--L-----------0-----------|
--L-----2--0--------------|--------0--------2--0--2--|
-----0--------------0-----|-----0-----0--------------|
--------------------------|--3-----------3-----------|
--0-----------0-----------|--------------------------|


  E  E  E  E  E  E  E  E     E  E  E  E  E  E  E  E   
--------------------------|-----------------0--L-----|
--------------------------|--0--1--3--3--L--------0--|
--L-----2--0--------0--2--|--------------------------|
-----0-----------0--------|--0-----------------0-----|
--------------------------|--------------------------|
--3-----------3-----------|--2-----------2-----------|


                                                                    
  S S  S S  S S  S  S E  E  E    E     E  E  E  S  S S S  S S T  T  T  T S  S  
-------------------------3----------|-----0------------0h-7---3h-5p-3p-0------|
--L-------------------------3--3g5--|--L-----3-------3-------------------0h-1-|
----2p-0------0h-2p-0---------------|-----------4s-5--------7-----------------|
---------0h-2-----------------------|-----------------------------------------|
------------------------------------|--3--------------------------------------|
--0-------------------0-------------|-----------------------------------------|


  S S S S E  E  E  E  S  S E     Q     E  E  E  E  E  S  S  
------------------------------|--------------------0-------|
--3-0-3-0-3--0--L-------------|-----------------------0h-1-|
--0----------------0-------0--|--2~----2--0----------------|
----------------------0h-2----|--0--------------0----------|
--2----------3--L-------------|----------------------------|
------------------------------|--2-----------0-------------|


  S  S S S S S E  E  E  E  E     E  E    E  E  E  S S S  S  S S    
---------0-3-5-3--L--------0--|--2--3--3g5--7-----0--------------||
--3p-0-3-------3--L--3--------|--3----------0--8------0h-1h-3----||
--0------------0--L-----0-----|--2----------0--L----7---------0-*||
------------------------------|--0------------------------------*||
--2------------3--L-----------|-------------7--L-----------------||
------------------------------|----------------------------------||
  Rall.---------------------------
  2nd Ending----------------------    A Tempo
  H        E  E  E  E     H           S  S  S S S S S S E  S S S S S S  
-----------------------|-----------|-----------------------------------|
-----------0-----------|-----------|--------------3---3------1-0-------|
--------------2--0--2--|--L--------|--0h-2p-0-0------------------2-0---|
--0--------------------|-----------|--0-------------0------0---------0-|
--3--------------------|-----------|-----------------------------------|
-----------------------|-----------|--3---------3-------0------0-------|


                                                               ^          
  S T  T S S S S S S S S  S S S S S S    S S S S S S S S S S S S E  S  S  
--------------------------------------|----3-2-----------------0-L-------|
---------------0-------1p-0-----0-----|----0---3---0---1-3-0-3-3-L-------|
---------0-2-0-----0---2p-0-0-2-----0-|--------0-----0---0-----0-L--0h-2-|
----0h-2---------0----------0-0---2---|----------------------------------|
--3-----------------------------------|----------3-------2-----3-L-------|
---------------------3--------2-------|--0-------------------------------|


                              NH                                            
  S S S S S S S S S  S S S    Q         S  S  S S S S S S E  S S S  S  S S  
-----------------------------------||--------------------------------------|
--1---3-0------------------<>12----||---------------3---0------3-0h-1h-3---|
------------0----------0---<>12----||*--0h-2p-0-0--------------------------|
----2---------0-0-Lh-2---0-<>12----||*--0-------------0------0-----------0-|
--0-------2-----3-L----------------||--------------------------------------|
-----------------------------------||---3---------3-------3------3---------|


  S  S  S S S S S S E  S S S S  S S    S  S  S S S S S S E  S S S  S  S S  
------------------------------------|-------------------------------------|
--------------3---0-----------------|--------------3---0------3-0h-1h-3---|
--0h-2p-0-0-----0--------0--------0-|--0h-2p-0-0--------------------------|
--0--------------------0-----0h-4---|--0-------------0------0-----------0-|
--3---------3-------3------5--------|-------------------------------------|
------------------------------------|--3---------3-------3------3---------|


                                                     ^                     
  S  S  S S S S S S E  S S  S  S S S    E  S S S S S S S S S S  S S  S  S  
-------------------------------------|---------------3-L-----2p-0---------|
--------------3---0--------------0---|--3--3-0---3---3-L---3------3p-1p-0-|
--0h-2p-0-0-----0--------0h-2p-0---0-|--0----------0-0-L-0----------------|
--0--------------------0-------------|------------------------------------|
--3---------3-------3----------------|--2------2-----3-L------------------|
-------------------------------------|------------------------------------|

  1st Ending------------------
               ^                                   ^                    
  E  S S S S S S S  S S  S S S S S    E  S S S S S S S S S S  S S S  S  
-----------------------------------|-----------5---3-L-----2p-0---2h-3-|
--3--3-0---3---1-Lp-0--------0-----|--3--3-0-------3-L---3------3------|
--0----------0-0-L----2p-0-2---0---|--0----------0-0-L-0---------------|
---------------0-L---------------0-|-----------------------------------|
--2------2-----0-L---------2-------|--2------2-----3-L-----------------|
-----------------------------------|-----------------------------------|

                                       2nd Ending---------------------
  ^            ^                                    ^                    
  E  S S S S S S S S S S S S S  S      E  S S S S S S S  S S  S S S S S  
--5--5-3---2---2-L-0---------------||-----------------------------------|
--0--------------------3---0-------||--3--3-0---3---1-Lp-0--------0-----|
--0------0---0-0-L---0-------2p-0-*||--0----------0-0-L----2p-0-2---0---|
--0----------------------0--------*||---------------0-L---------0-----0-|
---------------3-L-----------------||--2------2-------------------------|
-----------------------------------||---------------0-L---------2-------|


               ^                      ^                v ^ v ^ v ^   
  E  S S S S S S S S S S  S S S  S    E  S S S S S S S S S S S S E   
-----------5---3-L-----2p-0---2h-3-|--5--5-3---7---3-L-3-3-3-3-2-0--|
--3--3-0-------3-L---3------3------|--0------------0-L-0-0-0-0-0-0--|
--0----------0-0-L-0---------------|--0------0---0-0-L-0-0-0-0-0-0--|
-----------------------------------|--0------------2-L-2------------|
--2------2-----3-L-----------------|--------------------------------|
-----------------------------------|--------------------------------|


    S  S  S S S S S S S S S S S S S S    S  S  S S S S S S S S S S S S S S  
|-------------------------------------|------------------------------------|
|---0h-1p-0-0-------------------------|--0h-1p-0-0-------3-L-3-----3-----3-|
|*--0h-2p-0-0---0---2-L-0-------0-----|--0h-2p-0-0---0---4-L-4-----4-----4-|
|*--0---------------0-L-----2-L---0---|--0---------------0-L-----0-----0---|
|-------------------------------------|------------------------------------|
|---3---------3---3-3-L---3-3-L-----3-|--3---------3---0-3-L---3-----3-----|

  1st Ending----------------------
  S  S  S S S S S S S S S S S S S S    S S S S S S S S S S S S S S S S    
------------------------------------|-----------------------------------||
--0h-1p-0-0---------------3-L-0-----|--1-0---------1-0------------------||
--0h-2p-0-0---0---2-L-0---------2-0-|--2-0-2-0-----2-0-2-0-----0---2---*||
--0---------------0-L---------------|--0---------0-0---------0---0---0-*||
--3---------3---3-3-L---3-3---------|-----------------------------------||
------------------------------------|--3-------3---3-------3---0---2----||

  2nd Ending---------------------
  S S S S S S S S S S S S S S S S    S S S S S S S S S S S S S S S S  
----------------------------------|----------------------------------|
--3-L-3-----3---1-L-1-----1-0-1-3-|--1-0---------1-0-----------------|
--0-L-0-----0---0-L-0-------------|--2-0-2-0-----2-0-2-0-----0---2---|
--4-L-4---4-----2-L-2---2---------|--0---------0-0---------0---0---0-|
--3-L---3-----3-------3-----------|----------------------------------|
----------------------------------|--3-------3---3-------3---3---2---|


                 ^                                    ^                    
    E  S S S S S S S S S S  S S  S  S    E  S S S S S S S  S S  S S S S S  
|----------------3-L-----2p-0---------|-----------------------------------|
|---3--3-0---3---3-L---3------3p-1p-0-|--3--3-0---3---1-Lp-0--------0-----|
|*--0----------0-0-L-0----------------|--0----------0-0-L----2p-0-2---0---|
|*--0---------------------------------|---------0-----0-L---------------0-|
|----------2-----3-L------------------|--2------------0-L---------2-------|
|---0---------------------------------|-----------------------------------|

                                      1st Ending---------------------
               ^                      ^            ^                     
  E  S S S S S S S S S S  S S S  S    E  S S S S S S S S S S S S S  S    
-----------5---3-L-----2p-0---2h-3-|--5--5-3---2---2-L-0---------------||
--3--3-0-------3-L---3------3------|--0--------------------3---0-------||
--0----------0-0-L-0---------------|--0------0---0-0-L---0-------2p-0-*||
-----------------------------------|--0----------------------0--------*||
---------2-----3-L-----------------|---------------3-L-----------------||
--0--------------------------------|-----------------------------------||

  2nd Ending--------------------
  ^                ^ v ^ v ^ v     ^    ^  ^  ^    ^  ^   ^  ^ v  
  E  S S S S S S S S S S S S E     S  S E  E  S  S E  S S E  S S  
--5--5-3---7---3-L-3-3-3-3-2-0--|--0h-3-3--3--0h-3-5--5---3--3-0-|
--0------------0-L-0-0-0-0-0-0--|--0h-3-3--3--0h-3-5--5---3--3-0-|
--0------0---0-0-L-0-0-0-0-0-0--|--0----0--0--0----0--0---0--0-0-|
--0------------2-L-2-2-2-2-2-2--|--0----0--0--0------------------|
--------------------------------|--2----2--2--2----3--3---3--3-3-|
--------------------------------|--------------------------------|


  ^ v ^  ^  ^ v ^   ^   ^   ^     ^    ^  ^  ^    ^  ^   ^  ^ v  
  S S E  E  S S E   E   E   E     S  S E  E  S  S E  S S E  S S  
-------------------------------|--0h-3-3--3--0h-3-5--5---3--3-5-|
--3-0--------------------------|--0h-3-3--3--0h-3-5--5---3--3-3-|
--0-0-2--0--0-0-2b--2b--2b--0--|--0----0--0--0----0--0---0--0-0-|
--0-0-0--0--2-0-0---0---0---0--|--0----0--0--0------------------|
-------------------------------|--2----2--2--2----3--3---3--3-3-|
--3-3-3--3--3-3-2---2---2---2--|--0----0--0--0----0--0---0--0-0-|


  ^ v ^ v ^ v ^ v ^ v ^ v ^ v ^ v    ^    ^  ^  ^    ^  ^   ^  ^ v  
  S S S S S S S S S S S S S S S S    S  S E  E  S  S E  S S E  S S  
--8-8-8-7-7-7-7-7-7-5-5-5-3-3-5-5-|--0h-3-3--3--0h-3-5--5---3--3-0-|
--0-0-0-0-0-0-0-0-0-0-0-0-0-0-0-0-|--0h-3-3--3--0h-3-5--5---3--3-0-|
--0-0-0-0-0-0-0-0-0-0-0-0-0-0-0-0-|--0----0--0--0----0--0---0--0-0-|
--0-0-0-0-0-0-0-0-0-0-0-0-0-0-0-0-|--0----0--0--0------------------|
----------------------------------|--2----2--2--2----3--3---3--3-3-|
--3-3-3-3-3-3-2-2-2-2-2-2-2-2-2-2-|--0----0--0--0----0--0---0--0-0-|


  ^ v ^  ^  ^ v ^   ^   ^   ^       ^ v ^  ^  ^ v ^  ^  ^ v ^ v  
  S S E  E  S S E   E   E   E       S S E  E  S S E  E  S S S S  
-------------------------------||-------------------------------|
--3-0--------------------------||---3-0-------3-0---------------|
--0-0-2--0--0-0-2b--2b--2b--0--||*--0-0-2--0--0-0-2--0--2-4-2-0-|
--0-0-0--0--2-0-0---0---0---0--||*--0-0-0--0--0-0-0--0--0-0-0-0-|
-------------------------------||---2-2-2--2--2-2-3--3--3-3-3-3-|
--3-3-3--3--3-3-2---2---2---2--||---0-0-0--0--0-0-0--0--0-0-0-0-|


  ^ v ^  ^  ^ v ^  ^  ^ v ^ v    ^ v ^  ^  ^ v ^  ^  ^ v ^ v  
  S S E  E  S S E  E  S S S S    S S E  E  S S E  E  S S S S  
------------------------------|------------------------------|
--3-0-------3-0---------------|--3-0-------3-0---------------|
--0-0-2--0--0-0-2--0--4-4-4-4-|--0-0-2--0--0-0-2--0--2-4-2-0-|
--0-0-0--0--0-0-0--0--0-0-0-0-|--0-0-0--0--0-0-0--0--0-0-0-0-|	
------------------------------|--2-2-2--2--2-2-3--3--3-3-3-3-|
--3-3-3--3--3-3-2--2--2-2-2-2-|--0-0-0--0--0-0-0--0--0-0-0-0-|

  1st Ending -------------------     2nd Ending --------------------
  ^ v ^  ^  ^ v ^ v ^ v ^ v ^ v      ^ v ^ v ^ v ^ v ^ v ^ v ^ v ^ v  
  S S E  E  S S S S S S S S S S      S S S S S S S S S S S S S S S S  
---------------------------------||----------------0-3-3-3-3-5-5-5-5-|
--3-0-------3-0------------------||--3-0-----3-0-3-0-0-0-0-0-0-0-0-0-|
--0-0-2--0--0-0-2-2-4-4-5-5-4-4-*||--0-0-2-0-0-0-0-0-0-0-0-0-0-0-0-0-|
--0-0-0--0--0-0-0-0-0-0-0-0-0-0-*||--0-0-0-0-0-0-0-0-0-0-0-0-0-0-0-0-|
---------------------------------||------------------0-0-0-0-0-0-0-0-|
--3-3-3--3--3-3-2-2-2-2-2-2-2-2--||--3-3-3-3-3-3-3-3-2-2-2-2-2-2-2-2-|


  ^ v ^ v ^ v ^ v ^ v ^ v ^ v ^ v ^    v ^ v ^ v ^ v ^ v ^ v ^ v ^ v ^ v  
  S S S S S S S S S S S S S S S T T    S S S S S S S S S S S S S S S T T  
--3-3-3-3-3-3-3-3-3-3-3-3-3-3-3-3-3-|--3-3-3-3-3-3-3-3-3-3-3-3-5-5-5-5-5-|
--3-3-3-3-3-3-3-3-3-3-3-3-3-3-3-3-3-|--3-3-3-3-3-3-3-3-3-3-3-3-3-3-3-3-3-|
--0-0-0-0-0-0-0-0-0-0-0-0-0-0-0-0-0-|--0-0-0-0-0-0-0-0-0-0-0-0-0-0-0-0-0-|
--0-0-0-0-0-0-0-0-0-0-0-0-0-0-0-0-0-|--0-0-0-0-0-0-0-0-0-0-0-0-0-0-0-0-0-|
--2-2-2-2-2-2-3-3-3-3-3-3-3-3-3-3-3-|------------------------------------|
--0-0-0-0-0-0-0-0-0-0-0-0-0-0-0-0-0-|--3-3-3-3-3-3-2-2-2-2-2-2-2-2-2-2-2-|


  ^ v ^ v ^ v ^ v ^ v ^ v ^ v ^ v ^    v ^ v ^ v ^ v ^ v ^ v ^ v ^ v ^ v  
  S S S S S S S S S S S S S S S T T    S S S S S S S S S S S S S S S T T  
--3-3-3-3-3-3-0-0-0-0-0-0-0-0-0-0-0-|--3-3-3-3-3-3-5-5-5-5-5-5-5-5-5-5-5-|
--3-3-3-3-3-3-3-3-3-3-3-3-3-3-3-3-3-|--3-3-3-3-3-3-0-0-0-0-0-0-0-0-0-0-0-|
--0-0-0-0-0-0-0-0-0-0-0-0-0-0-0-0-0-|--0-0-0-0-0-0-0-0-0-0-0-0-0-0-0-0-0-|
--0-0-0-0-0-0-0-0-0-0-0-0-0-0-0-0-0-|--0-0-0-0-0-0-0-0-0-0-0-0-0-0-0-0-0-|
--2-2-2-2-2-2-3-3-3-3-3-3-3-3-3-3-3-|------------------------------------|
--0-0-0-0-0-0-0-0-0-0-0-0-0-0-0-0-0-|--3-3-3-3-3-3-2-2-2-2-2-2-2-2-2-2-2-|

                                       Hand over neck. Thumb Plays low notes...
  ^ v ^ v ^ v ^ v ^ v ^ v ^ v ^ v ^    v ^ v ^ v ^ v ^ v ^ v ^ v ^ v ^ v  
  S S S S S S S S S S S S S S S T T    S S S S S S S S S S S S S S S T T  
--7-7-7-7-7-7-7-7-7-7-7-7-7-7-7-7-7-|--7-7-7-7-7-7-8-8-8-8-8-8-8-8-8-8-8-|
--0-0-0-0-0-0-0-0-0-0-0-0-0-0-0-0-0-|--0-0-0-0-0-0-0-0-0-0-0-0-0-0-0-0-0-|
--0-0-0-0-0-0-0-0-0-0-0-0-0-0-0-0-0-|--0-0-0-0-0-0-0-0-0-0-0-0-0-0-0-0-0-|
--0-0-0-0-0-0-0-0-0-0-0-0-0-0-0-0-0-|--0-0-0-0-0-0-0-0-0-0-0-0-0-0-0-0-0-|
--2-2-2-2-2-2-3-3-3-3-3-3-3-3-3-3-3-|------------------------------------|
--0-0-0-0-0-0-0-0-0-0-0-0-0-0-0-0-0-|--3-3-3-3-3-3-2-2-2-2-2-2-2-2-2-2-2-|

...pinky  plays high notes.
   ^  v  ^  v  ^  v  ^  v  ^  v  ^  v  ^  v  ^  v  ^  
   S  S  S  S  S  S  S  S  S  S  S  S  S  S  S  T  T  
--10-10-10-10-10-10-10-10-10-10-10-10-10-10-10-10-10-|
---0--0--0--0--0--0--0--0--0--0--0--0--0--0--0--0--0-|
---0--0--0--0--0--0--0--0--0--0--0--0--0--0--0--0--0-|
---0--0--0--0--0--0--0--0--0--0--0--0--0--0--0--0--0-|
---2--2--2--2--2--2--3--3--3--3--3--3--3--3--3--3--3-|
---0--0--0--0--0--0--0--0--0--0--0--0--0--0--0--0--0-|


   v  ^  v  ^  v  ^  v  ^  v  ^  v  ^ v ^ v ^ v  
   S  S  S  S  S  S  S  S  S  S  S  S S S S T T  
--10-10-10-10-10-10-10-10-10-10-10-10-8-8-8-8-8-|
---0--0--0--0--0--0--0--0--0--0--0--0-0-0-0-0-0-|
---0--0--0--0--0--0--0--0--0--0--0--0-0-0-0-0-0-|
---0--0--0--0--0--0--0--0--0--0--0--0-0-0-0-0-0-|
------------------------------------------------|
---3--3--3--3--3--3--2--2--2--2--2--2-2-2-2-2-2-|


   ^  v  ^  v  ^  v ^ v ^ v ^ v ^ v ^ v ^  
   S  S  S  S  S  S S S S S S S S S S T T  
--10-10-10-10-10-10-7-7-7-7-7-7-7-7-7-7-7-|
---0--0--0--0--0--0-0-0-0-0-0-0-0-0-0-0-0-|
---0--0--0--0--0--0-0-0-0-0-0-0-0-0-0-0-0-|
---0--0--0--0--0--0-0-0-0-0-0-0-0-0-0-0-0-|
---2--2--2--2--2--2-3-3-3-3-3-3-3-3-3-3-3-|
---0--0--0--0--0--0-0-0-0-0-0-0-0-0-0-0-0-|


   v  ^  v  ^  v  ^ v ^ v ^ v ^ v ^ v ^ v    ^ v ^ v ^ v ^ v ^ v ^ v ^ v ^ v ^  
   S  S  S  S  S  S S S S S S S S S S T T    S S S S S S S S S S S S S S S T T  
--10-10-10-10-10-10-8-8-8-8-8-8-8-8-8-8-8-|--7-7-7-7-7-7-7-7-7-7-7-7-7-7-7-7-7-|
---0--0--0--0--0--0-0-0-0-0-0-0-0-0-0-0-0-|--0-0-0-0-0-0-0-0-0-0-0-0-0-0-0-0-0-|
---0--0--0--0--0--0-0-0-0-0-0-0-0-0-0-0-0-|--0-0-0-0-0-0-0-0-0-0-0-0-0-0-0-0-0-|
---0--0--0--0--0--0-0-0-0-0-0-0-0-0-0-0-0-|--0-0-0-0-0-0-0-0-0-0-0-0-0-0-0-0-0-|
------------------------------------------|--2-2-2-2-2-2-3-3-3-3-3-3-3-3-3-3-3-|
---3--3--3--3--3--3-2-2-2-2-2-2-2-2-2-2-2-|--0-0-0-0-0-0-0-0-0-0-0-0-0-0-0-0-0-|


  v ^ v ^ v ^ v ^ v ^ v ^ v ^ v ^ v    ^ v ^ v ^ v ^ v ^ v ^ v ^ v ^ v ^  
  S S S S S S S S S S S S S S S T T    S S S S S S S S S S S S S S S T T  
--7-7-7-7-7-7-7-7-7-7-7-7-5-5-5-5-5-|--3-3-3-3-3-3-3-3-3-3-3-3-3-3-3-3-3-|
--0-0-0-0-0-0-0-0-0-0-0-0-0-0-0-0-0-|--0-0-0-0-0-0-0-0-0-0-0-0-0-0-0-0-0-|
--0-0-0-0-0-0-0-0-0-0-0-0-0-0-0-0-0-|--0-0-0-0-0-0-0-0-0-0-0-0-0-0-0-0-0-|
--0-0-0-0-0-0-0-0-0-0-0-0-0-0-0-0-0-|--0-0-0-0-0-0-0-0-0-0-0-0-0-0-0-0-0-|
--------------0-0-0-0-0-0-0-0-0-0-0-|--2-2-2-2-2-2-3-3-3-3-3-3-3-3-3-3-3-|
--3-3-3-3-3-3-2-2-2-2-2-2-2-2-2-2-2-|--0-0-0-0-0-0-0-0-0-0-0-0-0-0-0-0-0-|


  v ^ v ^ v ^ v ^ v ^ v ^ v ^ v ^ v      ^ v ^ v ^ v ^ v ^ v ^ v ^ v ^ v ^  
  S S S S S S S S S S S S S S S T T      S S S S S S S S S S S S S S S T T  
--3-3-3-3-3-3-3-3-3-3-3-3-0-0-0-0-0-||---3-3-3-3-3-3-3-3-3-3-3-3-3-3-3-3-3-|
--3-3-3-3-3-3-3-3-3-3-3-3-3-3-3-3-3-||---0-0-0-0-0-0-0-0-0-0-0-0-0-0-0-0-0-|
--0-0-0-0-0-0-0-0-0-0-0-0-0-0-0-0-0-||*--0-0-0-0-0-0-0-0-0-0-0-0-0-0-0-0-0-|
--0-0-0-0-0-0-0-0-0-0-0-0-0-0-0-0-0-||*--0-0-0-0-0-0-0-0-0-0-0-0-0-0-0-0-0-|
--------------0-0-0-0-0-0-0-0-0-0-0-||---2-2-2-2-2-2-3-3-3-3-3-3-3-3-3-3-3-|
--3-3-3-3-3-3-2-2-2-2-2-2-2-2-2-2-2-||---0-0-0-0-0-0-0-0-0-0-0-0-0-0-0-0-0-|


  v ^ v ^ v ^ v ^ v ^ v ^ v ^ v ^ v      ^ v ^ v ^ v ^ v ^ v ^ v ^ v ^ v ^  
  S S S S S S S S S S S S S S S T T      S S S S S S S S S S S S S S S T T  
--3-3-3-3-3-3-3-3-3-3-3-3-0-0-0-0-0--||--3-3-3-3-3-3-3-3-3-3-3-3-3-3-3-3-3-|
--3-3-3-3-3-3-3-3-3-3-3-3-3-3-3-3-3--||--3-3-3-3-3-3-3-3-3-3-3-3-3-3-3-3-3-|
--0-0-0-0-0-0-0-0-0-0-0-0-0-0-0-0-0-*||--0-0-0-0-0-0-0-0-0-0-0-0-0-0-0-0-0-|
--0-0-0-0-0-0-0-0-0-0-0-0-0-0-0-0-0-*||--0-0-0-0-0-0-0-0-0-0-0-0-0-0-0-0-0-|
--------------0-0-0-0-0-0-0-0-0-0-0--||--2-2-2-2-2-2-3-3-3-3-3-3-3-3-3-3-3-|
--3-3-3-3-3-3-2-2-2-2-2-2-2-2-2-2-2--||--0-0-0-0-0-0-0-0-0-0-0-0-0-0-0-0-0-|


  v ^ v ^ v ^ v ^ v ^ v ^ v ^ v ^ v    ^                  
  S S S S S S S S S S S S S S S T T    W                  
--3-3-3-3-3-3-3-3-3-3-3-3-0-0-0-0-0-|--3----------------||
--3-3-3-3-3-3-3-3-3-3-3-3-3-3-3-3-3-|--3----------------||
--0-0-0-0-0-0-0-0-0-0-0-0-0-0-0-0-0-|--0----------------||
--0-0-0-0-0-0-0-0-0-0-0-0-0-0-0-0-0-|--0----------------||
--------------0-0-0-0-0-0-0-0-0-0-0-|--2----------------||
--3-3-3-3-3-3-2-2-2-2-2-2-2-2-2-2-2-|--3----------------||




Duration Legend
---------------
W - whole
H - half
Q - quarter
E - 8th
S - 16th
T - 32nd
X - 64th
. - note dotted
|-n-|  - n-tuplets


Tablature Legend
----------------
L - tied note
g - grace note
> - accentuded note
NH - natural harmonic
h - hammer on
p - pull off
s - legato slide
~ - vibrato
^ - brush up
v - brush down
Rall. - quickly slow down
A Tempo - original tempo
Login or Register to remove this ad.