Ads

Ending Theme (Super Mario 64) Guitar Tab

Submitted: Jun 05, 2009 by Kabukibear (Last updated: Feb 04, 2010)

5
Average: 5 (14 votes)
Download | Listen
Game: Super Mario 64
Composer(s): Koji Kondo
Style: Arrangement, Fingerstyle, Natural harmonics
Series: Mario

AutoScroll: Slow | Medium | Fast
Ending Theme                                   
~Super Mario 64~
Composed by: Koji Kondo
Arranged by: Justin Lincoln



     Tap Guitar Body ---------------------------.
           ^            ^                 ^                   
                   |3|  |3|                                   
     E  E  E  S E  S E  S E  E.     E  E  E  S E  E.   Q      
E||------------------------------|---------------------------|
B||------------------------------|---------------------------|
G||------------------------------|---------------------------|
D||------------------------------|---------------------------|
A||--x--x--x--x-x--x-x--x-x------|--x--x--x--x-x-------------|
E||------------------------------|--------------------12\----|


  Q    E  Q    E  S  E.     Q    E  Q    E  S  E.     Q    E  Q    E  S  E.   
-------------------------|--2----x--2----2---------|-------------------------|
--2----x--2----2--3s-5---|--3----x--3----3--5s-3---|--2----x--2----2--3s-5---|
--2----x--2----2---------|--2----x--2----2---------|--2----x--2----2---------|
--2----x--2----2---------|--0----x--0----0---------|--2----x--2----2---------|
--0----x--0----0---------|-------------------------|--0----x--0----0---------|
-------------------------|-------------------------|-------------------------|


  Q    E  E  E  E  S  E.     Q    E  Q    E  S  E.     Q    E  E  E  E  S E.   
--2----x--2-----4--5s-7---|-------------------------|--2----x--2--4--4----4---|
--3----x--3-----5---------|--2----x--2----2--3s-5---|--3----x--3--5--5----5---|
--2----x--2-----4---------|--2----x--2----2---------|--2----x--2--4--4----4---|
--0----x--0---------------|--2----x--2----2---------|--0----x--0--------------|
--------------------------|--0----x--0----0---------|-------------------------|
-------------0-----0------|-------------------------|-------------0-----0-----|


    E  E  E  E  E  E  E  E     E  E  E  E  E  E  E  E   
|------------------------0--|--L--------------------0--|
|---2--------2--3--2--3-----|-----------0--------2-----|
|*--------2-----------------|--------1-----2-----------|
|*-----2--------------4-----|-----2-----------2--------|
|---0--------0--2-----------|--4-----------0--------0--|
|---------------------------|--------------------------|


  E  E  E  E  E  E  E   E     E  E  E  E  Q    E  E   
--2--------2--4-----7------|--0-------------------0--|
--------3--------0-----10--|-----------0--2----3-----|
-----2---------------------|--------2----------------|
--0-----------0------------|-----2-------------------|
--------------------7------|--0----------------0-----|
---------------------------|-------------------------|

                             1st Ending------------
  E  E  E  E  E  E  E  E     E  E  E  E  E  E  E  E   
--2--------2--4-----7--5--|--0-----------5--0--------|
--------3--------0--------|-----------0--------2-----|
-----2--------------------|--------1--------------2--|
--0-----------0-----------|-----2--------------2-----|
--------------------------|--4-----------0-----------|
--------------------0-----|--------------------------|


                    |-3-|                                 
  E  E  E  E  E  E  S S S E     E  E  E  E  Q    E  E     
-----------0-----------------|--0-----------------------||
--3-----------3--2--0-2-0----|-----------0----------0---||
--------0-----------------2--|--------2-----1----2-----*||
-----0-----------------------|-----2-------------------*||
-----------------------------|--2-----------2-----------||
--3-----------3-----3--------|--------------0-----------||

  2nd Ending------------
  E  E  E  E  E  E  E  E      E  E  E  E  E  E  E  E     E  E  E  E  H         
--0-----------5--0--7--9--|--10--------9--7-----0--9--|--5--------0--5--------|
-----------0--------------|---------7-----------------|--------2--------------|
--------1-----------------|------7-----------7--------|-----2-----------------|
-----2--------------------|---------------------------|-----------------------|
--4-----------0-----0-----|---------------------------|--0--------------------|
--------------------------|---7-----------0-----------|-----------------------|


  E  E  E  Q    E   Q       E  E  E  Q    E  Q       E  E  E  Q    E   Q     
--5-----2--7----7s--9----|--4--------0------------|--2--------4----4s--5----|
-----2-------------------|--------2----------2----|--------3----------------|
-------------------------|-----1----------1-------|-----2-------------------|
--4----------------------|--2---------------------|--0----------------------|
-------------------------|------------------------|-------------------------|
-------------------------|------------------------|-------------------------|


  E  E  E  H        E     E  E  E  Q    E  E  E     E  E  E  Q    E  E  E   
--0--------0--------L--|-----------0-------2-----|--0----------------4--0--|
--------2--------------|--3----------------------|-----------2-------------|
-----2-----------------|--------4----------------|--------1----------------|
-----------------------|-----4----------4-----4--|-----2----------2--------|
--4--------------------|--2----------------------|--4----------------------|
-----------------------|-------------------------|-------------------------|


                                           NH    NH        
  E  E  E  Q    E   Q        E   E   E     E     H         
--2--------4----4s--5----|--------------------<>12--------|
--------3----------------|--12----------<>12--------------|
-----2-------------------|----------10--------------------|
--0----------------------|------12------------------------|
-------------------------|--------------------------------|
-------------------------|---0----------------------------|


  E  E  E  E  E  E  E  E     E  E  E  E  E  E  E  E   
--------------0-----------|-----------------------0--|
--2--0--2--3--------2--0--|--0-----------------2-----|
--------------------------|-----------2--2-----------|
--------------------------|--------------------------|
--0--0--0--0--------------|--------------------------|
--------------4--4--4--4--|--2--2--2--2--0--0--0--0--|


  E  E  E  E  E  E  E  E     E  E  E  E  E  E  E  E   
--2--0--2--4--5-----0-----|--------------------------|
-----------------------3--|--2-----2--3--0-----------|
--------------------------|--------------------------|
--0--0--0--0--------------|--------------------------|
--------------4--4--4--4--|--2--2--2--2--------------|
--------------------------|--------------0--0--0--0--|


  E  E  E  E  E  E  E  E     E  E  E  E  E  E  E  E   
--------------0-----------|-----------------------0--|
--2--0--2--3--2-----2--0--|--0-----------------2--2--|
--2--1--2--4--------2--1--|--1--------2--2-----2-----|
--------------------------|-----------2--2-----------|
--0--0--0--0--------------|--------------------------|
--------------4--4--4--4--|--2--2--2--2--0--0--0--0--|


                                                 NH    
  E  E  E  E  E  E  E  E     E  E  E  E  Q       Q     
--2--0--2--4--5-----------|--------------0----<>12----|
--3--2--3--3--------5--3--|--3--2--0-----0------------|
--------------6-----6--4--|--2--2--1--2---------------|
--0--0--0--0--------------|-----------2---------------|
--------------4--4--4--4--|--2--2--2--2---------------|
--------------------------|--------------0------------|


  E  E  E  E  E  E  E  E     E  E  E  E  E  E  E  E   
--------------1-----------|-----------------------1--|
--3--1--3--4--1-----3--1--|--1-----------------3--3--|
--3--2--2--2--------3--2--|--2--------3--3-----3-----|
--------------------------|-----------3--3-----------|
--1--1--1--1--0--0--0--0--|--------------------------|
--------------------------|--3--3--3--3--1--1--1--1--|


  E  E  E  E  E  E  E  E     E  E  E  E  E  E  E  E   
--3--1--3--5--6-----------|--------------------------|
--4--4--4--4--3-----6--4--|--3-----3--4--1-----------|
--------------------7--5--|--3-----3--3--2-----------|
--1--1--1--1--0--0--0--0--|--------------------------|
--------------------------|--3--3--3--3--------------|
--------------------------|--------------1--1--1--1--|


  E  E  E  E  E  E  E  E     E  E  E  E  E  E  E  E   
--------------1-----------|-----------------------1--|
--3--1--3--4--1-----3--1--|--1-----------------3--3--|
--3--2--2--2--------3--2--|--2--------3--3-----3-----|
--------------------------|-----------3--3-----------|
--1--1--1--1--0--0--0--0--|--------------------------|
--------------------------|--3--3--3--3--1--1--1--1--|


  E  E  E  E  E  E  E  E     E  E  E  E  H           Q    E  Q    E  S  E.   
--3--1--3--5--6-----------|--------------1--------|-------------------------|
--4--4--4--4--3-----6--4--|--4--3--1-----1--------|--3----x--3----3--4s-6---|
--------------------7--5--|--3--3--2--3-----------|--3----x--3----3---------|
--1--1--1--1--0--0--0--0--|-----------3-----------|--3----x--3----3---------|
--------------------------|--3--3--3--3-----------|--1----x--1----1---------|
--------------------------|--------------1--------|-------------------------|


  Q    E  Q    E  S  E.     Q    E  Q    E  S  E.     Q    E  Q    E  S  E.   
-------------------------|-------------------------|-------------------------|
--8----x--8----8--6s-4---|--3----x--3----3--4s-6---|--8----x--8----8--6s-4---|
--8----x--8----8---------|--3----x--3----3---------|--8----x--8----8---------|
--8----x--8----8---------|--3----x--3----3---------|--8----x--8----8---------|
--6----x--6----6---------|--1----x--1----1---------|--6----x--6----6---------|
-------------------------|-------------------------|-------------------------|


                            ^        ^           ^                  
  Q    E  Q    E  S  E.     H        H           W                  
-------------------------|--------------------|--6----------------||
--3----x--3----3--4s-6---|--8--------7--------|--6----------------||
--3----x--3----3---------|--8--------8--------|--7----------------||
--3----x--3----3---------|--8--------8--------|--8----------------||
--1----x--1----1---------|--6--------6--------|--8----------------||
-------------------------|--------------------|--6----------------||




Duration Legend
---------------
W - whole
H - half
Q - quarter
E - 8th
S - 16th
T - 32nd
X - 64th
. - note dotted
|-n-|  - n-tuplets


Tablature Legend
----------------
L - tied note
x - dead note
s - slide
> - accentuded note
NH - natural harmonic
^ - brush up
v - brush down
Login or Register to remove this ad.

6 comments on Ending Theme

I've always loved this song.

5

I've always loved this song. Good job.

wow, i love it 100%

5

wow, i love it 100%

<3. I didn't recognize this

5

<3. I didn't recognize this song until the middle, catchy part.

OMG

5

It's beautiful, a great job from kabukibear

its very pretty

haha if you play it slow it sounds real pretty

Really Nice! but...

5

If you want to achieve the perfect sound, so that it matches the original one, just add a capo to the third fret! Try it out!