Ads

Dire Dire Docks (Super Mario 64) Guitar Tab

Submitted: Feb 13, 2014 by Alfa_ice

5
Average: 5 (17 votes)
Download | Listen
Game: Super Mario 64
Composer(s): Koji Kondo
Style: Arrangement, Artificial harmonics, Fingerstyle
Series: Mario

AutoScroll: Slow | Medium | Fast
                                Dire Dire Docks                                 

Super Mario 64
Tabbed by: Isac Saleh
Standard tuning: EADGBE



      E  E  E  Q    Q    E     Q.        H        E     E  E  E  Q    Q    E   
E||----------------------0--|--5------<>12--------L--|---------------------0--|
B||------------0----2-------|------------------------|-----------0----2-------|
G||*--------2---------------|------------------------|--------0---------------|
D||*-----2------------------|------------------------|-----0------------------|
A||---0---------------------|---------------------L--|------------------------|
E||-------------------------|------------------------|--3---------------------|


  Q.        H        E       E  E  E  Q    Q    E     Q.        H        E   
--5------<>12--------L---||---------------------0--|--5------<>12--------L--|
-------------------------||-----------0----1-------|------------------------|
------------------------*||------------------------|------------------------|
------------------------*||--------3---------------|------------------------|
-------------------------||-----3------------------|------------------------|
---------------------L---||--1---------------------|---------------------L--|


  E  E  E  Q    Q    E     Q.      H        E     E  E  E  E  E   E  E  E   
---------------------0--|--5-------L--------L--|--------5--7--9--10--9--7--|
-----------0----3-------|----------------------|-----5---------------------|
--------0---------------|----------------------|---------------------------|
-----0------------------|----------------------|---------------------------|
------------------------|----------------------|--0------------------------|
--3---------------------|-------------------L--|---------------------------|


  Q    Q    Q    Q        W                   E  E  E  Q    Q.      
--5--------------5\----|--0----------------|-----------------------|
--3----5----3----------|--1----------------|-----------0----3------|
-----------------------|-------------------|--------0--------------|
-----------------------|-------------------|-----0-----------------|
-----------------------|-------------------|-----------------------|
--3--------------------|--1----------------|--3--------------------|


  E  E  H.              E  E  E  H        E     E  E  E  E  E   E  E  E   
-----0--5------------|-----------------------|--------5--7--9--10--9--7--|
--2------------------|-----------2--------L--|-----5---------------------|
---------------------|--------4--------------|---------------------------|
---------------------|-----2-----------------|---------------------------|
--0------------------|--0--------------------|--0------------------------|
---------------------|-----------------------|---------------------------|


  Q    Q    Q    Q        W                   E  E  E  Q    Q    E   
--5--------------5\----|--0----------------|------------------------|
--3----5----3----------|--1----------------|-----------0----3----3--|
-----------------------|-------------------|--------0---------------|
-----------------------|-------------------|-----0------------------|
-----------------------|-------------------|------------------------|
--3--------------------|--1----------------|--3---------------------|


  E  E  H.              E  E  E  H        E     Q.     E  E   E  E  E   
-----0--5------------|-----------------------|------------2p--0-----2--|
--2------------------|-----------2--------L--|-------------------3-----|
---------------------|--------4--------------|---------2---------------|
---------------------|-----2-----------------|--0----------------------|
--0------------------|--0--------------------|-------------------------|
---------------------|-----------------------|-------------------------|


  Q.     Q.     Q       Q.     E  E  E  Q       Q.     Q.     Q     
--0------------------|------------0----------|---------------------|
--0------------------|---------------3--2----|--2------------------|
---------2------L----|-----------------------|---------2------L----|
---------------------|---------4-------------|---------------------|
--4------------------|--2--------------------|--0------------------|
---------------------|-----------------------|---------------------|


  Q.     E  E   E  E  E     Q.     Q.     Q       E  E  E  E  E  E  E  E   
------------2p--0-----2--|--0------------------|-----------------0--------|
-------------------3-----|--0------------------|--------------3-----3--2--|
---------2---------------|---------2------L----|--------0-----------------|
--0----------------------|---------------------|-----2-----2--------------|
-------------------------|--4------------------|--3-----------------------|
-------------------------|---------------------|--------------------------|


  Q    Q    H           E  E  E  E  E   E  E  E     Q    Q    Q    Q      
---------------------|--------5--7--9--10--9--7--|--5--------------5\----|
--L------------------|-----5---------------------|--3----5----3----------|
-------2-------------|---------------------------|-----------------------|
------------4--------|---------------------------|-----------------------|
-------L-------------|--0------------------------|-----------------------|
------------0--------|---------------------------|--3--------------------|


  W                   E  E  E  Q    Q.        E  E  H.            
--0----------------|-----------------------|-----0--5------------|
--1----------------|-----------0----3------|--2------------------|
-------------------|--------0--------------|---------------------|
-------------------|-----0-----------------|---------------------|
-------------------|-----------------------|--0------------------|
--1----------------|--3--------------------|---------------------|


  E  E  E  H        E     E  E  E  E  E   E  E  E     Q    Q    Q    Q      
-----------------------|--------5--7--9--10--9--7--|--5--------------5\----|
-----------2--------L--|-----5---------------------|--3----5----3----------|
--------4--------------|---------------------------|-----------------------|
-----2-----------------|---------------------------|-----------------------|
--0--------------------|--0------------------------|-----------------------|
-----------------------|---------------------------|--3--------------------|


  W                   E  E  E  Q    Q    E     E  E  H.            
--0----------------|------------------------|-----0--5------------|
--1----------------|-----------0----3----3--|--2------------------|
-------------------|--------0---------------|---------------------|
-------------------|-----0------------------|---------------------|
-------------------|------------------------|--0------------------|
--1----------------|--3---------------------|---------------------|


  E  E  E  H        E     E  E  E  Q    E  E  E     E  E  E  Q    E  E  E   
-----------------------|-----------3----3--3--3--|-----3--3--3----3--3--3--|
-----------2--------L--|-----------0-------------|-----0-----0-------------|
--------4--------------|--------0--0-------------|--------0----------------|
-----2-----------------|-------------------------|-------------------------|
--0--------------------|-----2-------------------|-----2-------------------|
-----------------------|--3----------------------|--3----------------------|


  E  E  E  Q    Q    E     E  E  E  Q    E  E  E     E  E  E  Q    Q    E   
-----------5----5----5--|-----5-----5----5--5--5--|--------0--5----5----5--|
--------6---------------|--------6----------------|-----0-----3----3----3--|
-----5------------------|-----5-------------------|------------------------|
--3---------------------|--3--3-------------------|--2---------------------|
------------------------|-------------------------|------------------------|
------------------------|-------------------------|------------------------|


  E  Q    E  E  Q.          E  E  E  Q    Q    E     Q.        H        E   
-----7----7-----7------||----------------------0--|--5------<>12--------L--|
-----------------------||------------0----2-------|------------------------|
-----7----7-----7------||*--------2---------------|------------------------|
--4----------6---------||*-----2------------------|------------------------|
-----------------------||---0---------------------|---------------------L--|
-----------------------||-------------------------|------------------------|


  E  E  E  Q    Q    E     Q.        H        E       E  E  E  Q    Q    E   
---------------------0--|--5------<>12--------L---||---------------------0--|
-----------0----2-------|-------------------------||-----------0----1-------|
--------0---------------|------------------------*||------------------------|
-----0------------------|------------------------*||--------3---------------|
------------------------|-------------------------||-----3------------------|
--3---------------------|---------------------L---||--1---------------------|


  Q.        H        E     E  E  E  Q    Q    E     Q.      H        E   
--5------<>12--------L--|---------------------0--|--5-------L--------L--|
------------------------|-----------0----3-------|----------------------|
------------------------|--------0---------------|----------------------|
------------------------|-----0------------------|----------------------|
------------------------|------------------------|----------------------|
---------------------L--|--3---------------------|-------------------L--|


  E  E  E  Q    E   E  E     W                  
--------0-----------------|-------------------||
-----------3----2p--0--2--|--L----------------||
--------------------------|--L----------------||
-----2--------------------|--L----------------||
--0-----------------------|--L----------------||
--------------------------|-------------------||




Duration Legend
---------------
W - whole
H - half
Q - quarter
E - 8th
S - 16th
T - 32nd
X - 64th
. - note dotted
|-n-|  - n-tuplets


Tablature Legend
----------------
L - tied note
x - dead note
g - grace note
(n) - ghost note
> - accentuded note
NH - natural harmonic
AH - artificial harmonic
TH - tapped harmonic
SH - semi harmonic
PH - pitch harmonic
h - hammer on
p - pull off
b - bend
br - bendRelease
pb - preBend
pbr - preBendRelease
brb - bendReleaseBend
\n/ - tremolo bar dip
\n - tremolo bar dive
-/n - tremolo bar Release up
/n\ - tremolo bar inverted dip
/n - tremolo bar return
-\n - tremolo bar Release down
S - shift slide
s - legato slide
/ -  slide into from below or out of upwards
\ -  slide into from above or out of downwards
~ - vibrato
W - wide vibrato
tr - trill
TP - tremolo picking
T - tapping
S - slap
P - pop
< - fade in
^ - brush up
v - brush down
Login or Register to remove this ad.

4 comments on Dire Dire Docks

amazing

5

great tab. For this part:

|--------5--7--9--10--9--7-|
|-----5---------------------|
|---------------------------|
|---------------------------|
|--0------------------------|
|---------------------------|

I found it easier to play it like this.

|-----0-----7--9--10--9--7-|
|------- 10-----------------|
|---------------------------|
|---------------------------|
|--0------------------------|
|---------------------------|

I also think it sounds a bit better because you can let the 10 on the b string ring while playing the other notes. amazing work. I love all your tabs and am slowly trying to learn them all.

I noticed that I forgot to

I noticed that I forgot to update my tab prior to uploading. The 9th measure

|--------5--7--9--10--9--7-|
|-----5---------------------|
|---------------------------|
|---------------------------|
|--0------------------------|
|---------------------------|
 should actually be 

|--------5--7--9--10--9--7-|
|-----5---------------------|
|---------------------------|
|---------------------------|
|---------------------------|
|--5------------------------|

This might be a stretch for many but the reason behind it is to faster get you aligned with the 3-E bass note on the measure after it.
As to the "ring" on 5-b it should ring since it's barre, however your method is easier for a "non-barre", but makes it take longer time for your index finger to switch to the next bass chord.

---

5

Just noticed a discrepancy between the tab and your video. In the first few bars the tab says to play the harmonic at fret 12 but I think you meant to say the harmonic 12 frets *above* the note fretted with the left hand i.e. harmonic at fret 17, which is what you play in the video. Also, you use the notation <> but at the bottom it says artificial harmonic should be AH.

Minor issues with an otherwise awesome tab :D

Absolutely wonderful!

5

Sounds amazing and plays really well. Well done! I love the harmonic! Good job!