Ads

Bob-Omb Battlefield (Super Mario 64) Guitar Tab

Submitted: Jan 15, 2010 by LTRobson (Last updated: Feb 06, 2010)

4.92857
Average: 4.9 (14 votes)
Download | Listen
Game: Super Mario 64
Composer(s): Koji Kondo
Style: Arrangement, Fingerstyle, Transcription
Series: Mario

AutoScroll: Slow | Medium | Fast
Super Mario 64 - Bob-Omb Battlefield (N64)
Simple solo guitar arrangement
Tabbed by LTRobson Jan 2010

Standard tuning

|-8-5-8/10-8---0-1-2-3----3---3-
|-8-5-8/10-8---0-1-2-3----3---3-
|-------------------------------
|-------------------------------
|-------------------------------
|-8-5-8/10-8---0-1-2-3--3---3---


|-----------3-5p3---------------------------------
|-3h4-5p4-5-------1----------------1-3p1----------
|------------------------0h1-2p1-2-------2------1-
|-------------------------------------------------
|-----3-----------3----------------3---------0----
|-----------3----------3-----1-----------2--------

|-------3---------3---------3--3-5p3--------------
|-------3---------3---------3--3-----3--------3h4-
|-0---0-----0---0-----0---0-----------------------
|---4---------4---------4-------------------------
|------------------------------------2-----0--2---
|-3---------3---------3-----------------3---------
    *         *         * these notes are hammered on


|-------3-5p3-6------------------8-10p8---------5-
|-5p4-5----------------9-10p9-10--------10--------
|-------------------------------------------------
|-------------------------------------------------
|-3-----------4----------8--------------9---------
|-------3----------3-------------8------------8---


|-3p2-3------3p2-3------0-0-------------
|-----------------------0-0-1---------1-
|-0---0------0---0----------0----0h2--0-
|---------------------------------------
|---------------------------3--3------3-
|-------3--3-------3--3----------3------

Next section
|-----------------------------------
|-5--6-8-9--10----9--8------6--8--5-
|-5--7-9-10-10----10-9------7--7--5-
|-------------------------7---------
|-----------8--------7------5-----3-
|-----------------------------------

|-----------------------------------
|-5--6-8-9--10----9--8------6--5----
|-5--7-9-10-10----10-9------7--5--5-
|-------------------------7-------5-
|-----------8--------7------5-----3-
|-----------------------------------


|-------------------------------
|-10-10-9--9--8-8-------6--8--5-
|-10-10-10-10-9-9-9--9--7--7--5-
|-----------------10-10---------
|-8-----8-----7---7-----5-----3-
|-------------------------------

|-------------------------------
|-10-10-9--9--8-8-------6--5----
|-10-10-10-10-9-9-9--9--7--5--5-
|-----------------10-10-------5-
|-8-----8-----7---7-----5-----3-
|-------------------------------

Next section (swing feel)
|-8---------------8-------------
|-------11--------------11------
|---9---------------9-----------
|-------------------------------
|-------------------------------
|-8---8---8---8---8---8---8---8-


|---------------------------------
|-10---------------10-------------
|--------8----------------8-------
|---10---------------10-----------
|-8----8---8---8---8----8---8---8-
|---------------------------------

|-8---------------8-------------
|-------11--------------11------
|---9---------------9-----------
|-------------------------------
|-------------------------------
|-8---8---8---8---8---8---8---8-

Endings
|--------------------
|-10--10--10--10--9--
|-10--10--10--10--10-
|--------------------
|-9---9---9---9---9--
|--------------------

|-------------8---11--12-
|-10--10--10--10--9---8--
|-10--10--10-------------
|------------------------
|-9----------------------
|------------------------

(Alt position)
|-------------------------------
|-1---------------1-------------
|-------3---------------3-------
|---2---------------2-----------
|-3---3---3---3---3---3---3---3-
|-------------------------------

|--------------------------------
|--------------------------------
|-2---------------2--------------
|-------1---------------1--------
|---3---------------3------------
|-1---1---1---1---1---1---1---1--

|-------------------------------
|-1---------------1-------------
|-------3---------------3-------
|---2---------------2-----------
|-3---3---3---3---3---3---3---3-
|-------------------------------

|---------------
|---------------
|-2--2--2--2--1-
|-3--3--3--3--3-
|---------------
|-1--1--1--1--1-
Login or Register to remove this ad.