Ads

Super Bell Hill (Super Mario 3D World) Bass/Guitar Tab

Submitted: Nov 22, 2013 by hslesperance (Last updated: Nov 23, 2013)

5
Average: 5 (3 votes)
Download | Listen
Game: Super Mario 3D World
Composer(s): Koji Kondo, Toru Minegishi, Mahito Yokota, Yasuaki Iwata
Style: 2 or more instruments, Transcription
Series: Mario

This song is also called Main Theme

AutoScroll: Slow | Medium | Fast
Super Bell Hill
Super Mario 3D World
Composed by Mahito Yokota
Tabbed by hslesperance
11/22/13

Standard Tuning

Some measures have two instruments together to keep the number of tracks down. Just play one part if you want.


Guitar 1

  E S S E E S S S S +Q     E E S E E  E. E E
|-------5-5-6-5-6-7-(7)--|-8-6-5---------8---|
|---6-8------------------|-------9-8-(8)---6-|
|------------------------|------------5--7---|
|------------------------|-------------------|
|------------------------|-------------------|
|------------------------|-------------------|


    E E S E   Q.      S  S S   E E S E   Q.      E  S   E.   E.   E E. E.    E   E E S E   Q.      S  S S
||---------------------------|-----------5----------8-|-8----6------8--6-------|-5-5-5-6--------------------|
||o-8-6-5-6----------------6-|-8-6-5-6-----------6----|-----------6----------6-|-----------8------------6---|
||------------5-------5--7---|------------------------|------------------------|-------------------5--7-----|
||---------------------------|------------------------|------------------------|----------------------------|
||o--------------------------|------------------------|------------------------|----------------------------|
||---------------------------|------------------------|------------------------|----------------------------|


  E E S E   Q.      S  S S   E E S E   Q.      E  S   E. E.    E    E E  S E S   +H        Q    S S  S S
|--------------------------|-----------5----------8-|-8--6-----5---------------|-------------------------|
|-8-6-5-6----------------6-|-8-6-5-6-----------6----|---------------8------6-6-|-(6)-------------------6-|
|-----------5-------5--7---|------------------------|-----------------5--7-----|------------------5--7---|
|--------------------------|------------------------|--------------------------|-------------------------|
|--------------------------|------------------------|--------------------------|-------------------------|
|--------------------------|------------------------|--------------------------|-------------------------|


  E E S E   Q.      S  S S   E E S E   Q.      E  S   E.   E.   E E. E.    E   E E S E   Q.      S  S S
|--------------------------|-----------5----------8-|-8----6------8--6-------|-5-5-5-6------------------|
|-8-6-5-6----------------6-|-8-6-5-6-----------6----|-----------6----------6-|-----------8------------6-|
|-----------5-------5--7---|------------------------|------------------------|-------------------5--7---|
|--------------------------|------------------------|------------------------|--------------------------|
|--------------------------|------------------------|------------------------|--------------------------|
|--------------------------|------------------------|------------------------|--------------------------|


  E E S E   Q.      S  S S   E E S E   Q.      E  S   E. E.    E    E E  S E S   +H.            E     E
|--------------------------|-----------5----------8-|-8--6-----5---------------|-------------------------|
|-8-6-5-6----------------6-|-8-6-5-6-----------6----|---------------8------6-6-|-(6)---------------------|
|-----------5-------5--7---|------------------------|-----------------5--7-----|---------------------10--|
|--------------------------|------------------------|--------------------------|-------------------------|
|--------------------------|------------------------|--------------------------|-------------------------|
|--------------------------|------------------------|--------------------------|-------------------------|


   E.  E.  E  a  E.  E.  E     E  E  S  E  S  +H                  E.  E.  E a  E.  E.  E    Q   Q   E.  E S   E
|-10------10-12h13--12--10--|---------------------------------|-------------9h10---------|----------------------|
|-----11--------------------|-13-13-13-11-10-(10)-------------|--11------11-------13--11-|-10--11--12--13-------|
|---------------------------|---------------------------------|------12------------------|-------------------10-|
|---------------------------|---------------------------------|--------------------------|----------------------|
|---------------------------|---------------------------------|--------------------------|----------------------|
|---------------------------|---------------------------------|--------------------------|----------------------|


   E.  E.  E  a  E.  E.  E     E  E  S  E  S    +Q.           E        E.  E.  S  S  E.  E.  E    W                          H               Q  S S  S S
|-10------10-12h13--12--10--|--------------------------------------|------------------------11-|---------------------------|-------------------------------||
|-----11--------------------|-13-13-13-11-10---(10)----------10----|--11---------10-11---------|-13------------------------|---------------------------6--o||
|---------------------------|--------------------------------------|------12--12--------12-----|---------------------------|----------------------5--7-----||
|---------------------------|--------------------------------------|---------------------------|---------------------------|-------------------------------||
|---------------------------|--------------------------------------|---------------------------|---------------------------|------------------------------o||
|---------------------------|--------------------------------------|---------------------------|---------------------------|-------------------------------||




Guitar 2

  Q     E E S S S S +Q     W
|------------------------|-------------------|
|------------------------|-------------------|
|------------------------|-------------------|
|-------7-7-8-7-8-9-(9)--|-------------------|
|------------------------|-------------------|
|------------------------|-------------------|


    E E E   E    E. E E.       E E E   E    E. E E.     E  E    E E E. E  E.     E E E   E    E. E E.
||--5---6--------8--6--------|-5----------------------|---------6---8--6-------|-5--------------------------|
||o-6---6--------6--6--------|-6---8--------6--8------|-6-------6---6--6-------|-6---8--------6--8----------|
||---------------------------|-----9--------7--9------|-5----------------------|-----9--------7--9----------|
||---------------------------|------------------------|------------------------|----------------------------|
||o--------------------------|------------------------|------------------------|----------------------------|
||---------------------------|------------------------|------------------------|----------------------------|


  E E E   E    E. E E.       E E E   E    E. E E.     E. E  S  S S  E Q.          E  E E E E. E   E.
|-5---6--------8--6--------|-5----------------------|----6-----8---10----------|--5----6---8--6----------|
|-6---6--------6--6--------|-6---8--------6--8------|-6--6----10---10----------|--6----6---6--6----------|
|--------------------------|-----9--------7--9------|-5------------------------|-------------------------|
|--------------------------|------------------------|--------------------------|-------------------------|
|--------------------------|------------------------|--------------------------|-------------------------|
|--------------------------|------------------------|--------------------------|-------------------------|


  E E E   E    E. E E.       E E E   E    E. E E.     E  E    E E E. E  E.     E E E   E    E. E E.
|-5---6--------8--6--------|-5----------------------|---------6---8--6-------|-5------------------------|
|-6---6--------6--6--------|-6---8--------6--8------|-6-------6---6--6-------|-6---8--------6--8--------|
|--------------------------|-----9--------7--9------|-5----------------------|-----9--------7--9--------|
|--------------------------|------------------------|------------------------|--------------------------|
|--------------------------|------------------------|------------------------|--------------------------|
|--------------------------|------------------------|------------------------|--------------------------|


  E E E   E    E. E E.       E E E   E    E. E E.     E. E  S  S S  E Q.          E  E E E E. E   E.
|-5---6--------8--6--------|-5----------------------|----6-----8---10----------|--5----6---7--8----------|
|-6---6--------6--6--------|-6---8--------6--8------|-6--6----10---10----------|--6----6---7--8----------|
|--------------------------|-----9--------7--9------|-5------------------------|-------------------------|
|--------------------------|------------------------|--------------------------|-------------------------|
|--------------------------|------------------------|--------------------------|-------------------------|
|--------------------------|------------------------|--------------------------|-------------------------|


   W                           H               E   E  S  E  S    +H            E.  E.  E    Q   Q   E.  E E.
|---------------------------|-----------------10--10-10-------|--------------------------|----------------------|
|---------------------------|---------------------------13-11-|-(11)--------------10--11-|-10--11--12--13-------|
|---------------------------|---------------------------------|---------------12---------|--9--10--11--12-------|
|---------------------------|---------------------------------|--------------------------|----------------------|
|---------------------------|---------------------------------|--------------------------|----------------------|
|---------------------------|---------------------------------|--------------------------|----------------------|


   W                H             a   E   E  S  E     S    +H             E.  E.  E    E   E    E    E   E  S  E.  T  T  S   S  E S  E S  Q.      E.
|----------------|----------------8s=10--10-10----------|------------------------11-|--------------------------------------|-------------------------------||
|----------------|-----------------------------13----11-|-(11)---------------10-----|-13-(13)-(13)-(13)--------------------|---13---13---13---------------o||
|----------------|--------------------------------------|----------------12---------|--9---9---10---10--11-11-12--12h14h15-|---12---12---13----------------||
|----------------|--------------------------------------|---------------------------|--------------------------------------|-------------------------------||
|----------------|--------------------------------------|---------------------------|--------------------------------------|------------------------------o||
|----------------|--------------------------------------|---------------------------|--------------------------------------|-------------------------------||




Bass

  E  e E e E S S +Q     a a E E S E S +Q   S S S S
|---10---8---7--------|-2h3h5-3-2-1-0-(0)--5-3-2-0-|
|---------------------|----------------------------|
|-8----6---5---4-(4)--|----------------------------|
|---------------------|----------------------------|


    Q  E. E S E E E   Q  E. E S E E E   Q  E. E S E E E   Q  E. E S E E E
||------------------|-----------------|-----------------|------------------|
||o-3-----3-3---3-2-|-0-----0-0---0---|-----------------|---------------2--|
||o----3------3-----|----0------0---3-|-1-----1-1---1-2-|-3-----3-3---3----|
||------------------|-----------------|----1------1-----|----3------3------|


  Q  E. E S E E E   Q  E. E S E E E   E. E. E E E. S E   Q  Q  E. E S E
|-----------------|-----------------|--------------3s5-|-----------------|
|-3-----3-3---3-2-|-0-----0-0---0---|----3-------------|-3--5--3------5--|
|----3------3-----|----0------0---3-|-1-----1-3--------|----------3------|
|-----------------|-----------------|------------------|-----------------|


  Q  E. E S E E E   Q  E. E S E E E   Q  E. E S E E E   Q  E. E S E E E
|-----------------|-----------------|-----------------|-----------------|
|-3-----3-3---3-2-|-0-----0-0---0---|-----------------|---------------2-|
|----3------3-----|----0------0---3-|-1-----1-1---1-2-|-3-----3-3---3---|
|-----------------|-----------------|----1------1-----|----3------3-----|


  Q  E. E S E E E   Q  E. E S E E E   E. E. E E E. S E   Q  Q  E. E S E
|-----------------|-----------------|--------------3s5-|----0--1--2------|
|-3-----3-3---3-2-|-0-----0-0---0---|----3-------------|-3------------3--|
|----3------3-----|----0------0---3-|-1-----1-3--------|-----------------|
|-----------------|-----------------|------------------|-----------------|


  Q  E. E S E E E   Q  E. S S S E E E   Q  E. E S E E E   Q  E. S S S S E. E
|-3-----3-3---0-3-|-2-----2---------2-|-0-------------0-|----0--0-1-0-1-2------|
|----3------3-----|----2----0-0-2-4---|----0------0-2---|-3----------------3---|
|-----------------|-------------------|-------3-3-------|----------------------|
|-----------------|-------------------|-----------------|----------------------|


  E. E. E E. E. E   Q  E S E S E E E   E. E. E E. E. E    Q   E.  E  S  E E E    E. E.  E.  S E E E
|-3-----3-4--4--4-|-5----5-7-7-5-----|-0--0-------3--8-|----------------------|-----------------------||
|----3------------|----7---------7-4-|-------3-1-------|-10------10-10----7-8-|-10-----10--10-8-7-5--o||
|-----------------|------------------|-----------------|-----10--------10-----|----------------------o||
|-----------------|------------------|-----------------|----------------------|-----8-----------------||

h - hammer on
s - slide

W - whole
H - half
Q - quarter
E - 8th
S - 16th
T - 32nd
a - acciaccatura
+ - note tied to previous
. - note dotted

Uncapitalized letters represent notes that are staccato (1/2 duration)
Login or Register to remove this ad.

3 comments on Super Bell Hill

Let us usher in the new

Let us usher in the new console generation with a Mario tab, who still makes the boopinest game music after 25+ years.

Thanks for doing this man!

Thanks for doing this man! Most companies choose to ignore melodies. I'm glad Nintendo still holds true to their past self in respect to music.

It's just sad more can't experience this wonderful game because of the install base. I hope the WiiU can find it's footing.

Alright man!

5

Alright man!