Level 2 (Super Bomberman) Bass/Guitar Tab

Submitted: Dec 28, 2011 by JordanVS

0
Download | Listen
Game: Super Bomberman
Composer(s): Jun Chikuma, Atsushi Chikuma, Tomoyuki Yamata
Style: 2 or more instruments, Transcription
Series: Bomberman

AutoScroll: Slow | Medium | Fast
Stage 2/Level 2
Map Theme
Super Bomberman
Snes



Lead


      S  S  S  S  E   S  S  S. T  S  S  T  S T  T T T T  
E||--------17--------12-14-15-15-14-15-17-12-9----------|
B||--------------14----------------------------10-------|
G||--14-14----14------------------------------------7-9-|
D||-----------------------------------------------9-----|
A||-----------------------------------------------------|
E||-----------------------------------------------------|


     S  S S  S S  E.  S  S  S  S S T T  S S    S E  Q    S Q.     T T T T  
|---------8-12---10-----10-12-10-8-8-7----7-|--5--------------------------|
|---10-10------------------------------10---|-------8----L----------------|
|*------------------------------------------|-------------------------7-9-|
|*------------------------------------------|---------------------8-9-----|
|-------------------------------------------|-----------------------------|
|-------------------------------------------|-----------------------------|


   S  S S  S S  E.  S  S  S  S S T T  S S     S E  Q    S H         
--------8-12---10-----10-12-10-8-8-7----7-|------------------------|
--10-10------------------------------10---|--10----8---------------|
------------------------------------------|------------------------|
------------------------------------------|------------------------|
------------------------------------------|------------------------|
------------------------------------------|------------------------|


                                        |--3-|     
  W                   H.           S S  T T  T  S  
-------------------|-------------------17---17-15-|
-------------------|------------------------------|
-------------------|------------------------------|
-------------------|------------------------------|
-------------------|------------------------------|
-------------------|------------------------------|


   S S  S  S  S S  S  S  S  S  S  Q    S  
--17---15----17---15----17-15----17------|
----------17---------17-------16---------|
-----------------------------------------|
-----------------------------------------|
-----------------------------------------|
-----------------------------------------|


   S S  S  S  S S  S  S  T  T  T  T  S  S  S  S  E   
--17---15----17---15----17-17-16-15-----------------|
----------15---------15-------------17-14----13-11--|
------------------------------------------14--------|
----------------------------------------------------|
----------------------------------------------------|
----------------------------------------------------|


  S  S S  S S  S  S E   S S  S S  T  T  T T  S  
-----------------------------------------------|
----13---13---13-12----11---11---10-11---------|
-----------------------------------------------|
---------------------------------------10-9-10-|
-----------------------------------------------|
-----------------------------------------------|


  S  S S  S S  S  E  S  S S  S S  E.   
--------------------------------------|
----10---10---10-10----10---10---10---|
--------------------------------------|
--------------------------------------|
--------------------------------------|
--------------------------------------|


  T T  T T S T T S S E  T T T T S T T S T T T T S  
------10-----5-7-8-8-7------8-----3-5-6-5-6-------|
-----------6--------------------4-----------------|
--7-7----7--------------5-5---5-------------5-4-5-|
--------------------------------------------------|
--------------------------------------------------|
--------------------------------------------------|


  T T T T S T T S S E  T T T T S T T  T  S T T T T T    
------5---3-2-3---5--------5---3-2-3-17---------------||
------------------------------------------------------||
--2-2---2-------2---2--2-2---2----------14-------7-9-*||
---------------------------------------------8-9-----*||
-------------------------------------------0----------||
------------------------------------------------------||




Bass

     E  S S E  S S S. T S S T S T E       S S S S S S S S S T T S S S S S S  
G||----------------------------------||-----------5-5-2-4-----------5-5-2-4-|
D||----------------------------------||*--0-0-3-0---------0-0-0-3-0---------|
A||-----0-------------------0--------||*------------------------------------|
E||------------0-2-3--3-2-3---0------||-------------------------------------|


  S S S S S S S S S T T S S S S E     S S S S S S S S S T T S S S S S S  
----------5-5-2-4-----------5-5-4--|----------5-5-2-4-----------5-5-2-4-|
--0-0-3-0---------0-0-0-3-0--------|------3-0---------0-0-0-3-0---------|
-----------------------------------|--5-5-------------------------------|
-----------------------------------|------------------------------------|


  S S S S S S S S S T T S S S S E     S S S S E  S S E  S S S S E   
----------5-5-2-4-----------5-5-4--|------2---2---------2---2------|
--0-0-3-0---------0-0-0-3-0--------|-------------------------------|
-----------------------------------|--------0----0-0-0----0---0-0--|
-----------------------------------|--5-5--------------------------|


                            |-3-|                                    
  S S S S E  S S E  S S S S T T T S    S S S S E  S S E  S S S S E   
------2---2---------2---2-4-2-4-2-0-|------2---2---------2---2------|
------------------------------------|-------------------------------|
--0-0---0----0-0-0----0-------------|--0-0---0----0-0-0----0---0-0--|
------------------------------------|-------------------------------|


  S S S S E  S S S Q.     S    T T T T S T T S S E  T T T T S T T S T T T T S  
------2---2-----------------|------7-----2-4-5-5-4------5-----0-2-3-2-3-------|
----------------------------|--0-0---0-3--------------------1-----------------|
--0-0---0----0-0-0----------|-----------------------3-3---3-------------3-2-3-|
----------------------------|-------------------------------------------------|


  T T T T S T T S S E  T T T T S T T S S T T T T  
------2---0---0---2--------2---0---0---2---------|
------------4--------------------4---------------|
--0-0---0-------0---0--0-0---0-------0---0-0-2-4-|
-------------------------------------------------|


  T T T T S T T S S E  T T T T S T T S T T T T S  
------7-----2-4-5-5-4------5-----0-2-3-2-3-------|
--0-0---0-3--------------------1-----------------|
-----------------------3-3---3-------------3-2-3-|
-------------------------------------------------|


  T T T T S T T S S E  T T T T S T T Q       
------2---0---0---2--------2---0---0-------||
------------4--------------------4--------*||
--0-0---0-------0---0--0-0---0------------*||
-------------------------------------------||


Map Theme

Bass

     E  S E  E  S H           E  S E  E  H        S    E  S E  E  S H         
G||-------4--2-------------|------------------------|-------4--2-------------|
D||-------------4-3--------|------------------------|-------------4-3--------|
A||--2--2------------------|--2--2-0--2-------------|--2--2------------------|
E||------------------------|------------------------|------------------------|


  E  S E  E  H        S    E  S E  E  S H           E  S E  E  H        S  
------------------------|-------4--2-------------|------------------------|
------------------------|-------------4-3--------|------------------------|
--2--2-0--2-------------|--2--2------------------|--2--2-0--2-------------|
------------------------|------------------------|------------------------|


  E  S E  E  S H           E  S E  E  H        S   
-------4--2-------------|------------------------||
-------------4-3--------|------------------------||
--2--2------------------|--2--2-0--2-------------||
------------------------|------------------------||

Piano 

     W                   W                   W                 
E||--2----------------|--L----------------|--0----------------|
B||--3----------------|--L----------------|--2----------------|
G||--4----------------|--L----------------|--1----------------|
D||-------------------|-------------------|-------------------|
A||-------------------|-------------------|-------------------|
E||-------------------|-------------------|-------------------|


  W                   W                   W                   W                 
--L----------------|--2----------------|--L----------------|--0----------------|
--L----------------|--3----------------|--L----------------|--2----------------|
--L----------------|--4----------------|--L----------------|--1----------------|
-------------------|-------------------|-------------------|-------------------|
-------------------|-------------------|-------------------|-------------------|
-------------------|-------------------|-------------------|-------------------|


  W                  
--L----------------||
--L----------------||
--L----------------||
-------------------||
-------------------||
-------------------||
Login or Register to remove this ad.