Level 1 (Super Bomberman) Bass/Guitar Tab

Submitted: Dec 16, 2011 by JordanVS (Last updated: Dec 20, 2011)

5
Average: 5 (2 votes)
Download | Listen
Game: Super Bomberman
Composer(s): Jun Chikuma, Atsushi Chikuma, Tomoyuki Yamata
Style: 2 or more instruments, Alternate picking, Transcription
Series: Bomberman

This song is also called Area 1

AutoScroll: Slow | Medium | Fast
Level 1/Area 1
Stage Clear Theme		
Super Bomberman
Snes


Piano Intro
     S S  S S E  S S E  E  E  E     S S S S E  S S E  S S S S E   
E||------10------5-7-8--8--7-----|------8------3-5-6--5-6--------|
B||-----------6------------------|----------4--------------------|
G||--7-7----7--------------------|--5-5---5---------------5-4-5--|
D||------------------------------|-------------------------------|
A||------------------------------|-------------------------------|
E||------------------------------|-------------------------------|


  S S S S E  S S E  E  E  E     S S S S E  S S E  E  S S S S  
------5---3--2-3----5--------|------5---3--2-3----5----------|
-----------------------------|-------------------------------|
--2-2---2--------2-----2-----|--2-2---2--------2-----2-2-4-6-|
-----------------------------|-------------------------------|
-----------------------------|-------------------------------|
-----------------------------|-------------------------------|


Synth Melody

   S  S  S  S  E   S  S  E   E   E  E   
--------22--------17-19-20--20--19-----|
--------------18-----------------------|
--19-19----19--------------------------|
---------------------------------------|
---------------------------------------|
---------------------------------------|


   S  S  S  S  E   S  S  E   S  S  S  S  E   
--------20--------15-17-18--17-18-----------|
--------------16----------------------------|
--17-17----17---------------------17-16-17--|
--------------------------------------------|
--------------------------------------------|
--------------------------------------------|


   S  S  S  S  E   S  S  E   E   E  E      S  S  S  S  E   S  S  E   E   E  E   
--------17----15--14-15-----17---------|--------17----15--14-15-----17---------|
---------------------------------------|--------------------------------16-----|
--14-14----14-----------14------14-----|--14-14----14-----------14-------------|
---------------------------------------|---------------------------------------|
---------------------------------------|---------------------------------------|
---------------------------------------|---------------------------------------|

     
     
Lead
    

    E.  T T  E.  T T  Q.     S S    E  E   E  E   E  E   S S  S E   

|------------12---L---------------|-----8--10--8------8-----8-------|
|---13----------------10------L---|---------------10-----10---10----|
|*--------------------------------|------------------------------9--|
|*--------------------------------|---------------------------------|
|---------------------------------|---------------------------------|
|---------------------------------|---------------------------------|


                                              |--3-|          
  E.  T T E.  T T Q.     S S    H        E.   T T  T  E   E   
-----------------------------|-------------------------------|
----------8---L--------------|---------------------------10--|
--7---L-----------9------L---|------------------9-10-12------|
-----------------------------|---------------12--------------|
-----------------------------|-------------------------------|
-----------------------------|-------------------------------|


                                                        |--3-|     
   E.  T T  E.  T T  Q.     S S    E  E   E  E   E  E   S S  S E   
-----------12---L---------------|-----8--10--8------8-----8-------|
--13---L------------10------L---|---------------10-----10---10----|
--------------------------------|------------------------------9--|
--------------------------------|---------------------------------|
--------------------------------|---------------------------------|
--------------------------------|---------------------------------|


                                              |--3-|          
  E.  T T E.  T T Q.     S S    H        E.   T T  T  E   E   
-----------------------------|-------------------------------|
----------8---L--------------|---------------------------10--|
--7---L-----------9------L---|------------------9-10-12------|
-----------------------------|---------------12--------------|
-----------------------------|-------------------------------|
-----------------------------|-------------------------------|


                                                        |--3-|     
   E.  T T  E.  T T  Q.     S S    E  E   E  E   E  E   S S  S E   
-----------12---L---------------|-----8--10--8------8-----8-------|
--13---L------------10------L---|---------------10-----10---10----|
--------------------------------|------------------------------9--|
--------------------------------|---------------------------------|
--------------------------------|---------------------------------|
--------------------------------|---------------------------------|


                                              |--3-|          
  E.  T T E.  T T Q.     S S    H        E.   T T  T  E   E   
-----------------------------|-------------------------------|
----------8---L--------------|---------------------------10--|
--7---L-----------9------L---|------------------9-10-12------|
-----------------------------|---------------12--------------|
-----------------------------|-------------------------------|
-----------------------------|-------------------------------|


                                                        |--3-|     
   E.  T T  E.  T T  Q.     S S    E  E   E  E   E  E   S S  S E   
-----------12---L---------------|-----8--10--8------8-----8-------|
--13---L------------10------L---|---------------10-----10---10----|
--------------------------------|------------------------------9--|
--------------------------------|---------------------------------|
--------------------------------|---------------------------------|
--------------------------------|---------------------------------|


  E.  T T E.  T T Q.     S S     S  S  S  S  S  S  S  S  S  S  S  S  S  S  E   
-----------------------------|--------17----15----14-15-17----15-17-----------|
----------8---L--------------|------------------------------------------------|
--7---L-----------9------L---|--14-14----14----14----------14-------14-12-14--|
-----------------------------|------------------------------------------------|
-----------------------------|------------------------------------------------|
-----------------------------|------------------------------------------------|


   E.    E.     E.   T T   E     E.   T T  
--12---(12)---(12)---L---(12)--(12)---L---|
------------------------------------------|
------------------------------------------|
------------------------------------------|
------------------------------------------|
------------------------------------------|


   E.    E.     E.   T T   E     E.   T T  
--10---(10)---(10)---L---(10)--(10)---L---|
------------------------------------------|
------------------------------------------|
------------------------------------------|
------------------------------------------|
------------------------------------------|


  E.   E.    E.   T T  E    E.   T T    E.   E.    E.   T T  E    E.   T T  
--7---(7)---(7)---L---(7)--(7)---L---|--7---(7)---(7)---L---(7)--(7)---L---|
-------------------------------------|-------------------------------------|
-------------------------------------|-------------------------------------|
-------------------------------------|-------------------------------------|
-------------------------------------|-------------------------------------|
-------------------------------------|-------------------------------------|


   E.    E.     E.   T T   E     E.   T T  
--12---(12)---(12)---L---(12)--(12)---L---|
------------------------------------------|
------------------------------------------|
------------------------------------------|
------------------------------------------|
------------------------------------------|


   E.    E.     E.   T T   E     E.   T T  
--10---(10)---(10)---L---(10)--(10)---L---|
------------------------------------------|
------------------------------------------|
------------------------------------------|
------------------------------------------|
------------------------------------------|


  E.   E.    E.   T T  E    E.   T T    E.   E.    E.   T T  E    E.   T T  
--7---(7)---(7)---L---(7)--(7)---L---|--7---(7)---(7)---L---(7)--(7)---L---|
-------------------------------------|-------------------------------------|
-------------------------------------|-------------------------------------|
-------------------------------------|-------------------------------------|
-------------------------------------|-------------------------------------|
-------------------------------------|-------------------------------------|


  S S  S S E  S S E  E  E  E     S S S S E  S S E  S S S S E   
------10------5-7-8--8--7-----|------8------3-5-6--5-6--------|
-----------6------------------|----------4--------------------|
--7-7----7--------------------|--5-5---5---------------5-4-5--|
------------------------------|-------------------------------|
------------------------------|-------------------------------|
------------------------------|-------------------------------|


                                                         |-3-|  
  S S S S E  S S E  E  E  E     S S S S E  S S E  E  S S S S S  
------5---3--2-3----5--------|------5---3--2-3----5------2-----|
-----------------------------|-----------------------------5-4-|
--2-2---2--------2-----2-----|--2-2---2--------2-----2-2-------|
-----------------------------|---------------------------------|
-----------------------------|---------------------------------|
-----------------------------|---------------------------------|


  S S  S S E  S S E  E  E  E     S S S S E  S S E  S S S S E   
------10------5-7-8--8--7-----|------8------3-5-6--5-6--------|
-----------6------------------|----------4--------------------|
--7-7----7--------------------|--5-5---5---------------5-4-5--|
------------------------------|-------------------------------|
------------------------------|-------------------------------|
------------------------------|-------------------------------|


  S S S S E  S S E  E  E  E     S S S S S S S S S S S S S S E            
------5---3--2-3----5--------|------5---3---2-3-5---3-5---------|
-----------------------------|----------------------------------|
--2-2---2--------2-----2-----|--2-2---2---2-------2-----2-0-2--*|
-----------------------------|---------------------------------*|
-----------------------------|----------------------------------|
-----------------------------|----------------------------------|




Bass



     S S S S E  S S E  E  E  E     S S S S E  S S E  S S S S E   
G||------7------2-4-5--5--4-----|------5------0-2-3--2-3--------|
D||----------3------------------|----------1--------------------|
A||--5-5---5--------------------|--3-3---3---------------3-2-3--|
E||-----------------------------|-------------------------------|


  S S S S E  S S E  E  E  E     S S S S E  S S E  E  S S S S  
------2---0----0----2--------|------2---0----0----2----------|
-------------4---------------|-------------4-----------------|
--0-0---0--------0-----0-----|--0-0---0--------0-----0-0-2-4-|
-----------------------------|-------------------------------|


  S S S S E  S S E  E  E  E     S S S S E  S S E  S S S S E   
------7------2-4-5--5--4-----|------5------0-2-3--2-3--------|
----------3------------------|----------1--------------------|
--5-5---5--------------------|--3-3---3---------------3-2-3--|
-----------------------------|-------------------------------|


  S S S S E  S S E  E  E  E     S S S S E  S S E  E  E  E   
------2---0----0----2--------|------2---0----0----2--------|
-------------4---------------|-------------4---------1-----|
--0-0---0--------0-----0-----|--0-0---0--------0-----------|
-----------------------------|-----------------------------|


    S S S S E  S S E  E  E  E     S S S S E  S S E  S S S S E   
|-------7------2-4-5--5--4-----|------5------0-2-3--2-3--------|
|*----------3------------------|----------1--------------------|
|*--5-5---5--------------------|--3-3---3---------------3-2-3--|
|------------------------------|-------------------------------|


  S S S S E  S S E  E  E  E     S S S S E  S S E  E  S S S S  
------2---0----0----2--------|------2---0----0----2----------|
-------------4---------------|-------------4-----------------|
--0-0---0--------0-----0-----|--0-0---0--------0-----0-0-2-4-|
-----------------------------|-------------------------------|


  S S S S E  S S E  E  E  E     S S S S E  S S E  S S S S E   
------7------2-4-5--5--4-----|------5------0-2-3--2-3--------|
----------3------------------|----------1--------------------|
--5-5---5--------------------|--3-3---3---------------3-2-3--|
-----------------------------|-------------------------------|


  S S S S E  S S E  E  E  E     S S S S E  S S E  E  S S S S  
------2---0----0----2--------|------2---0----0----2----------|
-------------4---------------|-------------4-----------------|
--0-0---0--------0-----0-----|--0-0---0--------0-----0-0-2-4-|
-----------------------------|-------------------------------|


                                                    |-3-|     
  S S S S E  S S E  E  E  E     S S E  E  S S E  E  S S S E   
------7------2-4-5--5--4-----|-------------------------------|
----------3------------------|------5------------------------|
--5-5---5--------------------|------------0-2-3--3--3-5-3----|
-----------------------------|--3-3----3---------------------|


  S S E  E  S S E  E  E  E     S S S S E  S S E  E  S S S S  
----------------------------|--------------------2----------|
------3------------3--------|------2------------------------|
---------3----3-------------|-----------------0-----0-0-2-3-|
--1-1-----------1-----1-----|--0-0---0-3--0-3---------------|


                                                    |-3-|     
  S S S S E  S S E  E  E  E     S S E  E  S S E  E  S S S E   
------7------2-4-5--5--4-----|-------------------------------|
----------3------------------|------5------------------------|
--5-5---5--------------------|------------0-2-3--3--3-5-3----|
-----------------------------|--3-3----3---------------------|


  S S E  E  S S E  E  E  E     W                   S S S S E  S S E  E  E  E   
----------------------------|-------------------|------7------2-4-5--5--4-----|
------3------------3--------|-------------------|----------3------------------|
---------3----3-------------|-------------------|--5-5---5--------------------|
--1-1-----------1-----1-----|-------------------|-----------------------------|


  S S S S E  S S E  S S S S E     S S S S E  S S E  E  E  E   
------5------0-2-3--2-3--------|------2---0----0----2--------|
----------1--------------------|-------------4---------------|
--3-3---3---------------3-2-3--|--0-0---0--------0-----0-----|
-------------------------------|-----------------------------|


  S S S S E  S S E  E  S S S S    S S S S E  S S E  E  E  E   
------2---0----0----2----------|------7------2-4-5--5--4-----|
-------------4-----------------|----------3------------------|
--0-0---0--------0-----0-0-2-4-|--5-5---5--------------------|
-------------------------------|-----------------------------|


  S S S S E  S S E  S S S S E     S S S S E  S S E  E  E  E   
------5------0-2-3--2-3--------|------2---0----0----2--------|
----------1--------------------|-------------4---------------|
--3-3---3---------------3-2-3--|--0-0---0--------0-----0-----|
-------------------------------|-----------------------------|


  S S S S E  S S E  E  S S S S    S S S S E  S S E  E  E  E   
------2---0----0----2----------|------7------2-4-5--5--4-----|
-------------4-----------------|----------3------------------|
--0-0---0--------0-----0-0-2-4-|--5-5---5--------------------|
-------------------------------|-----------------------------|


  S S S S E  S S E  S S S S E     S S S S E  S S E  E  E  E   
------5------0-2-3--2-3--------|------2---0----0----2--------|
----------1--------------------|-------------4---------------|
--3-3---3---------------3-2-3--|--0-0---0--------0-----0-----|
-------------------------------|-----------------------------|


  S S S S E  S S E  E  S S S S    S S S S E  S S E  E  E  E   
------2---0----0----2----------|------7------2-4-5--5--4-----|
-------------4-----------------|----------3------------------|
--0-0---0--------0-----0-0-2-4-|--5-5---5--------------------|
-------------------------------|-----------------------------|


  S S S S E  S S E  S S S S E     S S S S E  S S E  E  E  E   
------5------0-2-3--2-3--------|------2---0----0----2--------|
----------1--------------------|-------------4---------------|
--3-3---3---------------3-2-3--|--0-0---0--------0-----0-----|
-------------------------------|-----------------------------|


                                     
  W                     
--------------------|
-------------------*|
-------------------*|
--------------------|


Stage Clear Theme


Strings

     H.            E   E   E      H         H            W                 
E||---------------10--10--10--|--13--------15--------|--14----------------|
B||---------------------------|----------------------|--------------------|
G||---------------------------|----------------------|--------------------|
D||---------------------------|----------------------|--------------------|
A||---------------------------|----------------------|--------------------|
E||---------------------------|----------------------|--------------------|


  W                  
-------------------||
-------------------||
-------------------||
-------------------||
-------------------||
-------------------||

Brass

     |--3--|   |---3---|                                        
     E  E  E   E   E   E   Q    Q       Q     Q     Q     Q     
E||-----------10--10--10--12---------|-------10----10----12----|
B||--5--5--5--10--10--10--13---------|-------11----11----13----|
G||--6--6--6-------------------------|-------------------------|
D||----------------------------------|-------------------------|
A||----------------------------------|-------------------------|
E||----------------------------------|-------------------------|


   W                   W                  
--10----------------|-------------------||
--10----------------|-------------------||
--------------------|-------------------||
--------------------|-------------------||
--------------------|-------------------||
--------------------|-------------------||


Bass

     H.           E  E  E     E  E  E  E  E  E  E  E  E  E  E  E   
G||---------------2--------|-----------------------------0--------|
D||------------------2-----|--------0--3--0--------0--2-----2-----|
A||--0------------------3--|--1--3-----------3--3--------------3--|
E||------------------------|--------------------------------------|


  W                   Q    H        Q      
-------------------|---------------------||
--0----------------|--0------------------||
-------------------|---------------------||
-------------------|---------------------||

Duration Legend
---------------
W - whole
H - half
Q - quarter
E - 8th
S - 16th
T - 32nd
X - 64th
. - note dotted
|-n-|  - n-tuplets


Tablature Legend
----------------
L - tied note
x - dead note
g - grace note
(n) - ghost note
> - accentuded note
NH - natural harmonic
AH - artificial harmonic
TH - tapped harmonic
SH - semi harmonic
PH - pitch harmonic
h - hammer on
p - pull off
b - bend
br - bendRelease
pb - preBend
pbr - preBendRelease
brb - bendReleaseBend
\n/ - tremolo bar dip
\n - tremolo bar dive
-/n - tremolo bar Release up
/n\ - tremolo bar inverted dip
/n - tremolo bar return
-\n - tremolo bar Release down
S - shift slide
s - legato slide
/ -  slide into from below or out of upwards
\ -  slide into from above or out of downwards
~ - vibrato
W - wide vibrato
tr - trill
TP - tremolo picking
T - tapping
S - slap
P - pop
< - fade in
^ - brush up
v - brush down
Login or Register to remove this ad.

1 comment on Level 1

Great!

5

Great tab!