Ads

Introduction (Sunset Riders) Guitar Tab

Submitted: Sep 28, 2009 by auriplane

5
Average: 5 (5 votes)
Download | Listen
Game: Sunset Riders
Composer(s): Motoaki Furukawa
Style: 2 or more instruments, Alternate picking, Transcription

AutoScroll: Slow | Medium | Fast
                       Sunset Riders - Introduction GUITAR TAB
                              Song by Motoaki Furukawa
                    
                       Tabbed by auriplane ([email protected])


This tab has three guitars, and I also made a bass tab that goes along with this.



                                 1ST GUITAR - MELODY

     ^
     H        E  Q    E     E  S. S. S. S. S. S. S. S. S. T    S S. S. S. S. S. S. Q.      
E||--0--------L-------0--|--1--3--1--0-----1--0--------0----|-----------------------------|
B||--0--------L--3-------|--------------3--------3--1-----3-|--L-1--0--3--1--0------------|
G||--1--------L----------|----------------------------------|-------------------2--1------|
D||--2--------L----------|----------------------------------|-----------------------------|
A||--2--------L----------|----------------------------------|-----------------------------|
E||--0--------L----------|----------------------------------|-----------------------------|


                                               |---3--|                                        
  W                   W                   Q    E  E   E   E.   E.  E      S S Q.     H         
-------------------|--8----------------|--L----L--8--10--12---10---8--|--10-8-7------L--------|
-------------------|-------------------|------------------------------|-----------------------|
-------------------|-------------------|------------------------------|-----------------------|
-------------------|-------------------|------------------------------|-----------------------|
-------------------|-------------------|------------------------------|-----------------------|
-------------------|-------------------|------------------------------|-----------------------|


       |--3--|                                                 |---3--|               
  Q    E  E  E   E.  E.  E     S S  Q.      H            Q     E   E  E  E.  E.   E   
--L----L--7--8--10---8---7--|--8-7-------------------|----------------7--8---7-------|
----------------------------|------10-------L--------|---L-----L--10-------------10--|
----------------------------|------------------------|-------------------------------|
----------------------------|------------------------|-------------------------------|
----------------------------|------------------------|-------------------------------|
----------------------------|------------------------|-------------------------------|


  |--3--|                                                                    
  E  E  E  H.              H        E.   E.   E      H         E.   E.   E   
--7---------------------|--------------------10--|--12---------L------------|
-----8------------------|---------------13-------|-----------------13-------|
--------7--L------------|--L--------L------------|----------------------12--|
------------------------|------------------------|--------------------------|
------------------------|------------------------|--------------------------|
------------------------|------------------------|--------------------------|


   H         E.   E.   E      E.   E.   E   H            H         E.  E.  E   
--------------------------|--------------------------|-----------------5---7--|
--------------------------|--------------------------|------------------------|
---L---------L------------|--------------------------|------------------------|
-----------------14---12--|--12---14---10---L--------|---L---------L----------|
--------------------------|--------------------------|------------------------|
--------------------------|--------------------------|------------------------|


  E.  E.  E  H            Q.      E   E.   E.  E     Q.     Q.     Q     
--7---8---5--L--------|--10--------------------8--|--8------7------L----|
----------------------|----------10---L---10------|---------------------|
----------------------|---------------------------|---------------------|
----------------------|---------------------------|---------------------|
----------------------|---------------------------|---------------------|
----------------------|---------------------------|---------------------|


                                                                                    |--3--|   
   Q.     E  E.  E.   E     H.           Q       Q.     Q.     Q       H.           E  E  E   
--12------7--L---8---10--|--8------------8----|--7------------------|------------------------|
-------------------------|--------------------|---------8-----------|------------------------|
-------------------------|--------------------|----------------7----|--9------------L--7--9--|
-------------------------|--------------------|---------------------|------------------------|
-------------------------|--------------------|---------------------|------------------------|
-------------------------|--------------------|---------------------|------------------------|


  Q.     E  Q.     S S     H.            E  E      Q    Q    E.  E.  E      W                 
-----------------------|-----------------------|------------------------|--------------------|
-----------------------|-----------------------|------------------------|--------------------|
--7--------------------|--------------------7--|------------------------|--------------------|
---------7--L------7-9-|--10------------10-----|--10----9----L---7---9--|--10----------------|
-----------------------|-----------------------|------------------------|--------------------|
-----------------------|-----------------------|------------------------|--------------------|

                                  ^
  Q.     Q.     Q       Q    Q    H           W                  
----------------7----|--5---------5--------|--L----------------||
--8------------------|------------5--------|--L----------------||
---------7-----------|------------5--------|--L----------------||
---------------------|------------7--------|--L----------------||
---------------------|------------7--------|--L----------------||
---------------------|------------5--------|--L----------------||



                            
                                 2ND GUITAR - HARMONY


     W                   W                   W                   W                 
E||-------------------|-------------------|-------------------|-------------------|
B||-------------------|-------------------|-------------------|-------------------|
G||-------------------|-------------------|-------------------|-------------------|
D||-------------------|-------------------|-------------------|-------------------|
A||-------------------|-------------------|-------------------|-------------------|
E||-------------------|-------------------|-------------------|-------------------|


                           |--3--|                                          
  W                   Q    E  E  E  E.  E.  E     S S Q.     E   E  E   E   
--5----------------|--L----L--5--7--8---7---5--|--7-5-----------10--8--10--|
-------------------|---------------------------|------8--------------------|
-------------------|---------------------------|---------------------------|
-------------------|---------------------------|---------------------------|
-------------------|---------------------------|---------------------------|
-------------------|---------------------------|---------------------------|


  |--3-|    |--3--|                                          |-3-|                       
  S  S S E  E  E  E  E.  E.  E     S S Q.     E  E  E  E     S S S E  E  E  E  E  E  E   
--8-10-8-7--L-----5--7---5------|--5-------------8--7--8--|--7-8-7-5--------------------|
---------------8-------------8--|----8-6------------------|-----------------------------|
--------------------------------|-------------------------|-----------------------------|
--------------------------------|-------------------------|-----------------------------|
--------------------------------|-------------------------|-----------------------------|
--------------------------------|-------------------------|-----------------------------|


                    |-3-|                                                  
  Q    Q    Q    E  S S S    Q    Q    E.   E.  E     H        E.  E.  E   
--------------------------|---------------------7--|--8--------L----------|
--------------------------|----------------10------|---------------8------|
--------------------7-9-7-|--5----7----9-----------|-------------------9--|
--------------------------|------------------------|----------------------|
--------------------------|------------------------|----------------------|
--------------------------|------------------------|----------------------|


                                                   |-3-|                       
  H        E.   E.  E     E.   E.  E  Q.     E     S S S E  E  E  E  S E.  E   
-----------------------|---------------------8--|--7-8-7-5--------------------|
-----------------------|------------------------|--------------------------8--|
--L--------L-----------|------------------------|----------------------9------|
---------------10---9--|--9---10---7--L---------|-----------------------------|
-----------------------|------------------------|-----------------------------|
-----------------------|------------------------|-----------------------------|


  E.   E.   E   H            Q.      E   E.   E.   E      Q.     E  E  E  E  E   
-------------------------|----------------------------|----------------------7--|
--8---10-----------------|--10--------------------10--|--10------8--L-----8-----|
-----------10---L--------|----------11---L---11-------|----------------7--------|
-------------------------|----------------------------|-------------------------|
-------------------------|----------------------------|-------------------------|
-------------------------|----------------------------|-------------------------|


  Q.     E  E.   E.  E      H.            Q       Q.     Q.     Q     
--7------------------7--|----------------------|---------------------|
---------9--L---10------|--10------------10----|--8------------------|
------------------------|----------------------|---------7-----------|
------------------------|----------------------|----------------9----|
------------------------|----------------------|---------------------|
------------------------|----------------------|---------------------|


   H         E   E   E  E     Q.     E  Q.     S S    Q    Q    Q    Q     
---------------------------|-----------------------|----------------------|
---------------------------|-----------------------|-----------------6----|
------------------------9--|-----------------------|--5---------5---------|
--10---------L------10-----|-----------------------|-------7--------------|
----------------10---------|-----------------------|----------------------|
---------------------------|-----------------------|----------------------|


  Q    Q    E.  E.  E     W                   Q.     Q.      Q       Q    Q    H         
--5--------------------|--5----------------|--7-------------10----|--8---------5--------|
-------8----L---6---8--|-------------------|---------8------------|------------5--------|
-----------------------|-------------------|----------------------|------------5--------|
-----------------------|-------------------|----------------------|------------7--------|
-----------------------|-------------------|----------------------|------------7--------|
-----------------------|-------------------|----------------------|------------5--------|


  W                  
--L----------------||
--L----------------||
--L----------------||
--L----------------||
--L----------------||
--L----------------||





                                 3RD GUITAR - RHYTHM

     W                   W                   W                   W                 
E||-------------------|-------------------|-------------------|-------------------|
B||-------------------|-------------------|-------------------|-------------------|
G||-------------------|-------------------|-------------------|-------------------|
D||-------------------|-------------------|-------------------|-------------------|
A||-------------------|-------------------|-------------------|-------------------|
E||-------------------|-------------------|-------------------|-------------------|


  E  E  E  E  E  E  E  E     E  E  E  E  E  E  E  E     E  E  E  E  E  E  E  E   
-----0--L--0--0--0--0--0--|--0--0--L--0--0--0--0--0--|--0-----------------------|
-----1--L--1--1--1--1--1--|--1--1--L--1--1--1--1--1--|--1--3--L--3--3--3--3--3--|
-----2--L--2--2--2--2--2--|--2--2--L--2--2--2--2--2--|--2--4--L--4--4--4--4--4--|
--------------------------|--------------------------|-----5--L--5--5--5--5--5--|
--------------------------|--------------------------|--------------------------|
--------------------------|--------------------------|--------------------------|


  E  E  E  E  E  E  E  E     E  E  E  E  E  E  E  E     E  E  E  E  E  E  E  E   
--------------------------|--------------------------|--------------------------|
--3--3--L--3--3--3--3--3--|--3--1--L--1--1--1--1--1--|--1--1--L--1--1--1--1--1--|
--4--4--L--4--4--4--4--4--|--4--2--L--2--2--2--2--2--|--2--2--L--2--2--2--2--2--|
--5--5--L--5--5--5--5--5--|--5--3--L--3--3--3--3--3--|--3--3--L--3--3--3--3--3--|
--------------------------|--------------------------|--------------------------|
--------------------------|--------------------------|--------------------------|


  E  E  E  E  E  E  E  E     E  E  E  E  E  S S E  S S    E  S S E  E  E  E  E  E   
--------------------------|----------------------------|---------------------------|
--1--3--L--3--3--3--3--3--|--3--3--L--3--3--3-3-3--3-3-|--5--5-5-5--5--5--5--5--5--|
--2--4--L--4--4--4--4--4--|--4--4--L--4--4--4-4-4--4-4-|--5--5-5-5--5--5--5--5--5--|
--3--5--L--5--5--5--5--5--|--5--5--L--5--5--5-5-5--5-5-|--5--5-5-5--5--5--5--5--5--|
--------------------------|----------------------------|---------------------------|
--------------------------|----------------------------|---------------------------|


  E  S S E  E  E  E  E  E     E  S S E  E  E  E  E  E     E  S S E  E  E  E  E  E   
---------------------------|--0--0-0-0--0--0--0--0--0--|--0--0-0-0--0--0--0--------|
--5--5-5-5--5--5--5--3--3--|--1--1-1-1--1--1--1--1--1--|--1--1-1-1--1--1--1--3--3--|
--5--5-5-5--5--5--5--4--4--|--2--2-2-2--2--2--2--2--2--|--2--2-2-2--2--2--2--4--4--|
--5--5-5-5--5--5--5--5--5--|---------------------------|---------------------5--5--|
---------------------------|---------------------------|---------------------------|
---------------------------|---------------------------|---------------------------|


  E  S S E  E  E  E  E  E     E  S S E  E  E  E  E  E     E  S S E  E  E  E  E  E   
---------------------------|---------------------------|---------------------------|
--1--1-1-1--1--1--1--1--1--|--3--3-3-3--3--3--3--3--3--|--3--3-3-3--3--3--3--3--3--|
--2--2-2-2--2--2--2--2--2--|--2--2-2-2--2--2--2--2--2--|--4--4-4-4--4--4--4--4--4--|
--3--3-3-3--3--3--3--3--3--|--4--4-4-4--4--4--4--4--4--|--5--5-5-5--5--5--5--5--5--|
---------------------------|---------------------------|---------------------------|
---------------------------|---------------------------|---------------------------|


  E  S S E  E  E  E  E  E     E  S S E  E  E  E  E  E     E  S S E  E  E  E  E  E   
--0--0-0-0--0--0--0--0--0--|--0--0-0-0--0--0--0--0--0--|---------------------------|
--0--0-0-0--0--0--0--0--0--|--1--1-1-1--1--1--1--1--1--|--3--3-3-3--3--3--3--3--3--|
--1--1-1-1--1--1--1--1--1--|--2--2-2-2--2--2--2--2--2--|--4--4-4-4--4--4--4--4--4--|
---------------------------|---------------------------|--5--5-5-5--5--5--5--5--5--|
---------------------------|---------------------------|---------------------------|
---------------------------|---------------------------|---------------------------|


  E  S S E  E  E  E  E  E     E  S S E  E  E  E  E  E     E  S S E  E  E  E  E  E   
---------------------------|---------------------------|---------------------------|
--5--5-5-5--5--5--5--5--5--|--3--3-3-3--3--3--3--3--3--|--1--1-1-1--1--1--1--1--1--|
--5--5-5-5--5--5--5--5--5--|--2--2-2-2--2--2--2--2--2--|--2--2-2-2--2--2--2--2--2--|
--5--5-5-5--5--5--5--5--5--|--4--4-4-4--4--4--4--4--4--|--3--3-3-3--3--3--3--3--3--|
---------------------------|---------------------------|---------------------------|
---------------------------|---------------------------|---------------------------|


  E  S S E  E  E  E  E  E     E  S S E  E  E  E  E  E     E  S S E  E  E  E  E  E   
---------------------------|--0--0-0-0--0--0--0--0--0--|---------------------------|
--1--1-1-1--3--3--3--3--3--|--1--1-1-1--1--1--1--1--1--|--3--3-3-3--3--3--3--3--3--|
--2--2-2-2--4--4--4--4--4--|--2--2-2-2--2--2--2--2--2--|--4--4-4-4--4--4--4--4--4--|
--3--3-3-3--5--5--5--5--5--|---------------------------|--5--5-5-5--5--5--5--5--5--|
---------------------------|---------------------------|---------------------------|
---------------------------|---------------------------|---------------------------|


  Q    Q    Q    Q       W                  
--0-------------------|-------------------||
--1-------------------|-------------------||
--2-------------------|-------------------||
----------------------|-------------------||
----------------------|-------------------||
----------------------|-------------------||




Duration Legend
---------------
W - whole
H - half
Q - quarter
E - 8th
S - 16th
T - 32nd
. - note dotted
|-n-|  - n-tuplets


Tablature Legend
----------------
L - tied note
^ - brush up
Login or Register to remove this ad.

4 comments on Introduction

This sounds awesome.

5

This sounds awesome.

This is so badass, auri!

5

This is so badass, auri! Great job! :)

My childhood!

5

My childhood!

Nice one, great tune. I

5

Nice one, great tune. I started this one but never finished writing it.