Ads

Main Theme Arranged ~ Guitar Version (Suikoden) Guitar Tab

Submitted: Mar 21, 2011 by ola3

5
Average: 5 (5 votes)
Download | Listen
Game: Suikoden
Composer(s): Miki Higashino
Style: Transcription

AutoScroll: Slow | Medium | Fast
Main Theme Arranged
Suikoden

e--------------------------------------0--------0----------------------------------
b-----------------2h3------------3-----------0---------3---------3-----------------
g----------2------------------2-----------1-------------------2--------------------
d--------2---2-------------4-------------------------------4-----------------------
a------0---------------------------------------------------------------------------
e----------------------------------------------------------------------------------

e------------------------------------------9--10--9--------------------------------
b---------10----------10---------------10------------10----------------------------
g--7/9----------9/11----------------9--------------------9/11--9-------------------
d----------------------------------------------------------------------------------
a----------------------------------------------------------------------------------
e----------------------------------------------------------------------------------

e------------------------------------------9--10--9--------------------------------
b---------10----------10---------------10------------10--10/12--12-----------------
g--7/9----------9/11----------------9----------------------------------------------
d----------------------------------------------------------------------------------
a----------------------------------------------------------------------------------
e----------------------------------------------------------------------------------

e------------------------------------------9--10--9--------------------------------
b---------10----------10---------------10------------10----------------------------
g--7/9----------9/11----------------9--------------------9/11--9-------------------
d----------------------------------------------------------------------------------
a----------------------------------------------------------------------------------
e----------------------------------------------------------------------------------

e----------------------------------------------------------------------------------
b---------10----------10------------------9--10--10/12--12---10-9------------------
g--7/9----------9/11----------------9/11--------------------------11---------------
d----------------------------------------------------------------------------------
a----------------------------------------------------------------------------------
e----------------------------------------------------------------------------------

e--------------------------------9-------------------------------------------------
b--12-10-12-10-12-10-12--10--12----9/10--------------------------------------------
g----------------------------------------9-----------------------------------------
d----------------------------------------------------------------------------------
a----------------------------------------------------------------------------------
e----------------------------------------------------------------------------------

e-------------------------------------------------------10---12---12/14---14-------
b--------10--12-10-12-10-12-10-12-10-12--14-15-14----------------------------------
g--9/11----------------------------------------------------------------------------
d----------------------------------------------------------------------------------
a----------------------------------------------------------------------------------
e----------------------------------------------------------------------------------

e--12---10--14--12--9------------------------------------------9--10--10/12--------
b------------------------10---------9--10--10/12--12----10--12---------------------
g----------------------------9--11-------------------------------------------------
d----------------------------------------------------------------------------------
a----------------------------------------------------------------------------------
e----------------------------------------------------------------------------------

e--12--12--9--10---------7/9-------------------------9h10--9-----------------------
b------------------12----------10----------10--10----------------------------------
g----------------------------------11--11------------------------------------------
d----------------------------------------------------------------------------------
a----------------------------------------------------------------------------------
e----------------------------------------------------------------------------------

e--10/12-12--9--9------------------------------------------------------------------
b-------------------10-----------9--10--10/12---12---10-9---9h10-------------------
g------------------------9/11------------------------------------------------------
d----------------------------------------------------------------------------------
a----------------------------------------------------------------------------------
e----------------------------------------------------------------------------------

h - hammer on
p - pull off
/ - slide up
Login or Register to remove this ad.

5 comments on Main Theme Arranged ~ Guitar Version

...

Not bad!! :)

thank you

thank you very much.

awesome, thank YOU!

awesome, thank YOU!

no problem

no problem

awesome

5

this is awesome dude