Ads

Dancing Girl (Kirov Theme) (Suikoden) Guitar Tab

Submitted: Oct 11, 2009 by kenor

5
Average: 5 (2 votes)
Download | Listen
Game: Suikoden
Composer(s): Miki Higashino
Style: Arrangement, Fingerstyle

AutoScroll: Slow | Medium | Fast
Dancing Girl (Kirov Theme)
~Suikoden I~
Composed by: Miki Higashino 
Arranged by: kenor

Rhytm: 3/4 metrum

                                         ^                                   
     Q    Q    Q       Q    Q    Q       Q    Q    E  E     Q    Q     Q     
E||-----------------|-------0----3----|--3------------0--|-------5-----8----|
B||--0----1----3----|--1----1----1----|--3---------3-----|--6----6----10----|
G||--0----0----0----|--0----0---------|--0---------0-----|--5----5----------|
D||--0----2----0----|------------2----|-------0----------|--7---------------|
A||-------0----2----|--3--------------|--2---------------|-------------8----|
E||--3--------------|-----------------|------------------|------------------|


      Q    E   E  Q        Q    Q     Q       Q    E  E  Q       Q    Q    Q     
E||---8----------------|-------------------|--3-------1--0----|------------8----|
B||---8-------10--8----|--10----0----10----|--1---------------|-------7----7----|
G||---9-----------9----|---0----------0----|-------0-----0----|--7---------7----|
D||--------------------|--------0----------|--2---------------|--0---------0----|
A||--10----------------|-------------------|-------------3----|-----------------|
E||--------8-----------|---7---------------|------------------|-----------------|


                                          ^                                   
     Q    E  E  Q       Q    Q    Q       Q    Q    E  E     Q    Q     Q     
E||--7-------5--3----|-------0----3----|--3------------0--|-------5-----8----|
B||-------0-----0----|--1----1----1----|--3---------3-----|--6----6----10----|
G||--0----------0----|--0----0---------|--0---------0-----|--5----5----------|
D||-------------0----|------------2----|-------0----------|--7---------------|
A||------------------|--3--------------|--2---------------|-------------8----|
E||------------------|-----------------|------------------|------------------|


      Q    E   E  Q        Q    Q     Q       Q    E  E  Q     
E||---8----------------|-------------------|--3-------1--0----|
B||---8-------10--8----|--10----0----10----|--1---------------|
G||---9-----------9----|---0----------0----|-------0-----0----|
D||--------------------|--------0----------|--2---------------|
A||--10----------------|-------------------|-------------3----|
E||--------8-----------|---7---------------|------------------|


                            ^                                 ^               
     Q    E  S S S S S S    H.              Q    Q    Q       Q    Q    Q     
E||----------0-------0---|---------------|-----------------|-----------------|
B||--3---------3-1-3---3-|--1------------|------------0----|-----------------|
G||-------2------0-------|--0------------|-------0---------|--2--------------|
D||--4-------------------|--2------------|--2--------------|--2---------2----|
A||----------------------|--3------------|-----------------|--0----3---------|
E||----------------------|---------------|--0--------------|-----------------|


     Q    E  E  E  E     H        Q       Q    E  E  Q       Q    E  E  E  E   
E||-------------------|----------------|------------------|-------------------|
B||-------------------|----------------|-------------0----|-------------------|
G||--2-------0--2-----|--0-------------|--0----0-----0----|--2----------------|
D||-------4--------4--|--2--------4----|--2-------4--2----|----------------2--|
A||--2----------2-----|-----------2----|-------2----------|--0----0--2--3-----|
E||-------------------|--0-------------|--0---------------|-------------------|


     ^                    ^                                 ^                
     E  E  E  E  E  E     H.              Q    Q    Q       Q    Q    E  E   
E||-----------0--------|---------------|-----------------|------------------|
B||--1--0--1-----3--1--|--0------------|-------0----3----|--3------------0--|
G||--2-----------------|---------------|--0----0----0----|--2---------2-----|
D||--2-----------------|--1------------|--0----0---------|--0---------0-----|
A||--0-----------------|--2------------|------------2----|-------0----------|
E||--------------------|---------------|--3--------------|--2---------------|


     Q    Q    Q       Q    E  E  Q       Q    Q    Q       Q    E  E  Q     
E||-------0----3----|--3-------0-------|--0---------0----|------------------|
B||--1----1----1----|--3----------3----|-----------------|--3-------1--0----|
G||--0----0---------|--0----------0----|--2---------2----|--0----------0----|
D||------------2----|------------------|-------4---------|-------0----------|
A||--3--------------|--2---------------|--5--------------|--2---------------|
E||-----------------|-------3----------|-----------------|-------------3----|


     Q    Q    Q       Q    E  E  Q       E  E  E  E  E  E     E  E  E  E  E  E   
E||------------3----|--2-------0-------|--------------------|--------------------|
B||-------2----2----|--3----------3----|--------0-----3-----|--3--------------0--|
G||--2---------2----|-------2----------|--0--------0-----0--|--------------2-----|
D||-----------------|--0----------4----|--------0-----------|--------0-----0-----|
A||--0---------0----|------------------|-----2--------2-----|-----0-----0--------|
E||-----------------|------------------|--3-----------------|--2-----------------|


     E  E  E  E  E  E     E  E  E  E  E  E     E  E  E  E  E  E   
E||--------0-----3-----|--3--------0--------|--0-----------0-----|
B||--1--------1-----1--|--------------3-----|--------------------|
G||--------0-----------|--------0-----------|--2-----------2-----|
D||-----2--------2-----|-----0-----------0--|--------4-----------|
A||--3-----------------|--2-----------------|-----5-----5-----5--|
E||--------------------|--------------3-----|--------------------|


     E  E  E  E  E  E     E  E  E  S S S S S S    Q    Q    Q     
E||--------------------|-----------------------|-----------------|
B||--3--------1--0-----|-----------0-------0---|-------1----3----|
G||--------0-----------|--2----------2-0-2---2-|--0----0----0----|
D||-----0-----------0--|-----2---------0-------|--0----2----0----|
A||--2-----------------|--4-----0--------------|--2----0----2----|
E||--------------3-----|-----------------------|--3--------------|


                       ^                                                        
     Q    Q    Q       Q    Q    E  E     Q    Q     Q        Q    E   E  Q     
E||-------0----3----|--3------------0--|-------5-----8----|---8----------------|
B||--1----1----1----|--3---------3-----|--6----6----10----|---8-------10--8----|
G||--0----0---------|--0---------0-----|--5----5----------|---9-----------9----|
D||------------2----|-------0----------|--7---------------|--------------------|
A||--3--------------|--2---------------|-------------8----|--10----------------|
E||-----------------|------------------|------------------|--------8-----------|


      Q    Q     Q       Q    E  E  Q       Q    Q    Q       Q    E  E  Q     
E||-------------------|--3-------1--0----|------------8----|--7-------5--3----|
B||--10----0----10----|--1---------------|-------7----7----|-------0-----0----|
G||---0----------0----|-------0-----0----|--7---------7----|--0----------0----|
D||--------0----------|--2---------------|--0---------0----|-------------0----|
A||-------------------|-------------3----|-----------------|------------------|
E||---7---------------|------------------|-----------------|------------------|


                       ^                                                        
     Q    Q    Q       Q    Q    E  E     Q    Q     Q        Q    E   E  Q     
E||-------0----3----|--3------------0--|-------5-----8----|---8----------------|
B||--1----1----1----|--3---------3-----|--6----6----10----|---8-------10--8----|
G||--0----0---------|--0---------0-----|--5----5----------|---9-----------9----|
D||------------2----|-------0----------|--7---------------|--------------------|
A||--3--------------|--2---------------|-------------8----|--10----------------|
E||-----------------|------------------|------------------|--------8-----------|


                                                                   ^              
      Q    Q     Q       Q    E  E  Q       Q    E  S S S S S S    H.             
E||-------------------|--3-------1--0----|----------0-------0---|---------------||
B||--10----0----10----|--1---------------|--3---------3-1-3---3-|--1------------||
G||---0----------0----|-------0-----0----|-------2------0-------|--0------------||
D||--------0----------|--2---------------|--4-------------------|--2------------||
A||-------------------|-------------3----|----------------------|--3------------||
E||---7---------------|------------------|----------------------|---------------||




Legend:
-------

H - half
Q - quarter
E - 8th
S - 16th
. - note dotted
^ - brush up
Login or Register to remove this ad.

1 comment on Dancing Girl (Kirov Theme)

Excellent!

This is excellent work! Captures the spirit of the original perfectly! Thank you for sharing!