Ads

A Peaceful Mountain Village (Suikoden 2) Guitar Tab

Submitted: May 04, 2017 by Kabukibear (Last updated: May 04, 2017)

5
Average: 5 (1 vote)
Download | Listen
Game: Suikoden 2
Composer(s): Miki Higashino
Style: Fingerstyle

AutoScroll: Slow | Medium | Fast
A Peaceful Mountain Village                           
~Suikoden II~
Composed by: Miki Higashino & Keiko Fukami
Arranged by: Justin Lincoln

Tempo: 65bpm
Drop D Tuning
(Capo 5)



     H        Q    Q       Q    E  X  X  S. Q    E  E   
E||--0-------------0----|------------------------------|
B||-----------3---------|--1----3--1h-3p-1-------1--3--|
G||--0------------------|-------------------2----------|
D||-----------0---------|--2---------------------------|
A||--3------------------|--0----------------3----------|
D||-----------5---------|-------------------3----------|


  Q    E  E  E  X  X  S. E  E     H.           E  E   
--0----3--5--8--5h-8p-5--3--0--|---------------0--0--|
-------------------------------|--3------------------|
--0----------9-----------------|---------------------|
-------------------------------|--0------------------|
--3----------0-----------------|---------------------|
-------------------------------|--5------------6-----|


  E  E  E  E  E  E  E  E     E  E  E  E  Q    E  X  X  S.  
--------------------0--3--|--5----------------3--0h-3p-0--|
--1--------1--1--3--------|-------------------------------|
--------------2-----------|-------------------------------|
-----------2--------------|--------------3----------------|
--0--2--3-----------------|--------0--3-------------------|
--------------------------|--3--5-------------------------|


  Q    E  E  E  E  E.. X X    Q    E  E  H           E  S S E  E  E  S S E  E   
-------0-------------------|----------------------|--0----0----0--3------------|
--3-------3--1-----1-----1-|----------------------|--1--3---1-----0----0----0--|
----------------2------2---|--2-------0--2--------|------------------2---0-----|
---------------------------|-------2--------------|----------------------------|
--0----------2-------------|--0-------------------|----------------------------|
--0----------2-------------|----------------------|----------------------------|


  E  S S E  E  E  S S E  E     E  S S E  E  E  X X S. E  E   
--0----0----0--5------------|--3--2-3-0--3--0----0----------|
-----3---1------------------|------------------1---1--L--3--|
--2-------------------2-----|-------------------------------|
---------------3--2-3----3--|--2------------0---------------|
----------------------------|-------------------------------|
----------------------------|-------------------------------|


  E  S S E  E  Q    Q       E  S S E  E  S S S S E  E   
--0----------------------|--0----0----0--3-------------|
-----0---0--3--0---------|--1--3---1-------0---0----0--|
-------2-----------------|-------------------2---0-----|
--2-----------------2----|-----------------------------|
-------------------------|-----------------------------|
-------------------------|-----------------------------|


  E  S S E  E  S S S S E  S S    E  X  X  S. E  E  E  E  Q     
--0----0----0--5----------5-7-|--8--7h-8p-7--5--3--L--0--5----|
-----3---1--------------------|-------------------------------|
--2--------------------2------|-------------------------------|
-----------------3-2-3----3---|--0--------------2--L----------|
------------------------------|--------------------------0----|
------------------------------|-------------------------------|


  E  E  E  E  H           
--L---------------------||
------------------------||
--------------2--------*||
-----------2-----------*||
--L--2--3---------------||
------------------------||




Duration Legend
---------------
W - whole
H - half
Q - quarter
E - 8th
S - 16th
T - 32nd
X - 64th
. - note dotted
|-n-|  - n-tuplets


Tablature Legend
----------------
L - tied note
x - dead note
g - grace note
(n) - ghost note
> - accentuded note
NH - natural harmonic
AH - artificial harmonic
TH - tapped harmonic
SH - semi harmonic
PH - pitch harmonic
h - hammer on
p - pull off
b - bend
br - bendRelease
pb - preBend
pbr - preBendRelease
brb - bendReleaseBend
\n/ - tremolo bar dip
\n - tremolo bar dive
-/n - tremolo bar Release up
/n\ - tremolo bar inverted dip
/n - tremolo bar return
-\n - tremolo bar Release down
S - shift slide
s - legato slide
/ -  slide into from below or out of upwards
\ -  slide into from above or out of downwards
~ - vibrato
W - wide vibrato
tr - trill
TP - tremolo picking
T - tapping
S - slap
P - pop
< - fade in
^ - brush up
v - brush down
Login or Register to remove this ad.