Ads

Homesickness (Suikoden 2) Guitar Tab

Submitted: Jul 20, 2014 by (Last updated: Jul 26, 2014)

5
Average: 5 (3 votes)
Download | Listen
Game: Suikoden 2
Composer(s): Miki Higashino
Style: Arrangement, Fingerstyle

AutoScroll: Slow | Medium | Fast
Homesickness
~Suikoden II~
Composed by: Miki Higashino
Tempo: 140

Capo. fret 2

     Q   H          Q   Q   Q      Q   H          Q   Q   Q
E||--------------|--------------|--------------|--------------|
B||--------------|--------------|--------------|--------------|
G||--------------|----------0---|--------------|----------0---|
D||------0-------|------2-------|------0-------|------2-------|
A||--------------|--0-----------|--------------|--0-----------|
E||--3-----------|--------------|--3-----------|--------------|

     Segno
     E   E   Q       E..    T   Q   E E E E    E   E   Q       E.    TT
||--------------------------0|--------------|------------------3------0|
||---0---1---3-------3-------|--3-----1-0---|--0---1---3-------------3-|
||*--------------------------|----------0-2-|--------------------------|
||*----------0---------------|------2-------|----------0---------------|
||---------------------------|--0-----------|--------------------------|
||---3-----------------------|--------------|--3-----------------------|


  Q       Q       E   E..T   Q   Q   Q      Q       Q       E.    TT
--------------------------|--------------|--------------------------|
--3---------------1---0--0|--------------|------------------------01|
----------------------0---|--2---0-------|--0---------------0-------|
----------2---------------|------0---3---|----------2---------------|
--0-----------------------|--------------|--0-----------------------|
--------------------------|--3-----------|--------------------------|

   Q   Q   Q      Q   Q   Q      Q   H          Q   Q   Q
--------------|---------------||--------------|--------------|
--0-----------|---------------||--------------|--------------|
------2-------|--0-------0---*||--------------|----------0---|
------0---3---|------2-------*||------0-------|------2-------|
--------------|--0------------||--------------|--0-----------|
--3-----------|---------------||--3-----------|--------------|

                 Rit.    Fine
  Q   H          Q   Q   Q        H       Q      Q.    E Q
--------------|--------------||---1-------1---|--1-----0-----|
--------------|--------------||---------------|----------3---|
--------------|----------0---||*--2-----------|--1-----------|
------0-------|------2-------||*--3-----------|--3-----------|
--------------|--0-----------||---------------|--------------|
--3-----------|--------------||---------------|--------------|


  H.             Q.    E E E    H       Q      Q.    E Q    
--0-----------|--------------|--------------|--------------|
--------------|--1-----0-1-3-|--4-------4---|--4-----------|
--0-----------|--------------|--0-----------|--------7-5---|
--2-----------|--------------|--------------|--4-----------|
--------------|--------------|--6-----------|--6-----------|
--------------|--------------|--------------|--------------|

  1st Ending-----------------,    2nd Ending----------------,
  H.             H       E E      H.             H.           
--------------|------------0--||--------------|--------------|
--3-----------|--0-------3----||--0-----------|--------------|
--0-----------|--------------*||--0-----------|--0-----------|
--0-----------|--------------*||--0-----------|--------------|
--------------|---------------||--------------|--------------|
--------------|---------------||--------------|--------------|

  Q   H          Q   Q   Q      Q   H          E E E E E E 
--------------|--------------|--------------|----2-0---0-2-|
--------------|--------------|--------------|--------3-----|
-(0)----------|-(0)------0---|--------------|----------0---|
------0-------|------2-------|------0-------|------2-------|
--------------|--0-----------|--------------|--0-----------|
--3-----------|--------------|--3-----------|--------------|

                                               D.S. al Fine
  Q   H          Q   Q   Q      Q   H          Q   Q   Q  
--------------|--------------|--------------|--------------||
--3-----------|-(3)----------|--------------|--------------||
--------------|----------0---|--------------|----------0---||
------0-------|------2-------|------0-------|------2-------||
--------------|--0-----------|--------------|--0-----------||
--3-----------|--------------|--3-----------|--------------||


Legend
------
W - whole
H - half
Q - quarter
E - 8th
S - 16th
T - 32nd
X - 64th
. - note dotted
.. - note double dotted
D.S. al Fine - Go to Segno and play to Fine
Login or Register to remove this ad.

1 comment on Homesickness

Great work!

5

Great work!