Ads

Heart Softening Theme (Suikoden 2) Guitar Tab

Submitted: Apr 25, 2009 by Mash (Last updated: Feb 03, 2010)

4
Average: 4 (1 vote)
Download | Listen
Game: Suikoden 2
Composer(s): Miki Higashino
Style: Transcription

AutoScroll: Slow | Medium | Fast
Title: Heart-Softening Theme
Composer: Miki Higashino
Game: Suikoden 2

Tabbed by Mash

e|--------12--12-14--12-|-12-10--10-9--9-7---------
B|-10--10---------------|------------------10-8-10-
G|----------------------|--------------------------
D|----------------------|--------------------------
A|----------------------|--------------------------
E|----------------------|--------------------------

e|--------12--12-14--12-|-12-10--10-9--9-7---------
B|-10--10---------------|------------------10-8-10-
G|----------------------|--------------------------
D|----------------------|--------------------------
A|----------------------|--------------------------
E|----------------------|--------------------------

e|-17-15--14-12---17-15--14-12-|-17-15--14-12--10-9-10-12----
B|-----------------------------|--------------------------10-
G|-----------------------------|-----------------------------
D|-----------------------------|-----------------------------
A|-----------------------------|-----------------------------
E|-----------------------------|-----------------------------

e|-17-15--14-12---17-15--14-12-|-17-15--14-12--10-9-7--------
B|-----------------------------|----------------------8-10---
G|-----------------------------|-----------------------------
D|-----------------------------|-----------------------------
A|-----------------------------|-----------------------------
E|-----------------------------|-----------------------------
Login or Register to remove this ad.