Ads

The Maiden (Stronghold (2001)) Guitar Tab

Submitted: Dec 23, 2014 by Matatiahu

5
Average: 5 (2 votes)
Download | Listen
Game: Stronghold (2001)
Composer(s): Robert Euvino
Style: Arrangement, Fingerstyle

Click here for a video example.

AutoScroll: Slow | Medium | Fast
The Maiden
Stronghold
Robert Euvino



Tune: Dropped D


Capo on the 5th fret


E||-----------|--------------|--0-----------|--------------|--------------|
B||--------0--|--1-----0-----|--1-----------|--3--------0--|-----------0--|
G||-----2-----|--2--------2--|--0-----------|--0-----5-----|--2-----2-----|
D||-----------|--2-----------|--------------|--0-----------|--2-----------|
A||-----------|--0-----------|--3-----------|--------------|--0-----------|
D||-----------|--------------|--------------|--5-----------|--------------|

--------------|--0-----------|--------------|--------------|
--1-----------|--1-----------|--3-----------|--------------|
--2-----------|--0-----------|--0-----------|----------2---|
--2-----------|--2-----------|--0--------0--|------2-------|
--0-----------|--3-----------|--------2-----|--0-----------|
--------------|-----------5--|--5-----------|--2-----------|

--------3--22-|--0--------|--------------|--------------|--------------|
-----------0--|--1--0-----|--------------|--------------|--------------|
--------2-----|--2-----2--|--0-----------|--------0-----|--2-----------|
--------------|--2--------|--0-----------|--2-----------|--2-----------|
--------------|--0--------|--------------|--------------|--0-----------|
--------------|-----------|--5-----------|--------------|--------------|

--------------|--------------|--------------|-----------1--|--0-----------|
--------------|--------------|--------------|--------------|--1-----------|
-----------0--|--2-----0-----|--------------|--2-----0-----|--0-----------|
--------2-----|--3--------3--|--2-----------|--3--------3--|--2-----------|
--------------|--3-----------|--3-----------|--3-----------|--3-----------|
--------------|--------------|--5-----------|--------------|--------------|

--0-----------|-----------------0-----------|
--------------|--0-----------0--------------|
--------------|-----------------------------|
--4-----------|-----------2-----------------|
--2-----------|--------2--------------------|
--------------|--2--5-----------------------|

-----------|-----------|-----------|-----------|-----------|
--------0--|--1--0-----|--------0--|-----------|-----------|
-----2-----|--2-----2--|--0--2-----|--3-----0--|-----------|
-----------|-----------|--2--------|--5--7-----|--3--3--0--|
-----------|--0--------|-----------|-----------|--0--------|
-----------|-----------|--2--------|--5--------|--0--------|

-----------|-----------|-----------|--0--------|
-----------|-----------|-----------|-----------|
--2--0-----|-----------|-----------|-----------|
--3-----3--|--2--2-----|--4--------|--------2--|
--3--------|--3-----3--|-----5--2--|-----2-----|
-----------|--5--------|--0--------|--2--------|
Login or Register to remove this ad.