Intro (Street Fighter Zero 2) Guitar Tab

Submitted: Apr 07, 2010 by soundsandstuff

0
Download | Listen
Game: Street Fighter Zero 2
Composer(s): Naoshi Mizuta, Setsuo Yamamoto, Syun Nishigaki, Tatsuro Suzuki
Style: Transcription

AutoScroll: Slow | Medium | Fast
Street Fighter Alpha 2 - Intro
Platform: Arcade, Super Nintendo Entertainment System/SNES, Playstation PSX, Sega Saturn, PC/Windows, Virtual Console
Developer/Publisher: Capcom
Composed by: Setsuo Yamamoto
	     Syun Nishigaki
             Tatsuro Suzuki
             Naoshi Mizuta


Electric Guitar Tab Created By: soundsandstuff channel www.youtube.com/user/soundsandstuff
Completed on: 4/4/10




======================================================== A


E|------------------------|------------------------|
B|------------------------|------------------------|
G|------------------------|------------------------|
D|------------------------|------------------------|
A|------------------------|------------------------|
E|------------------------|------------------------|


E|------------------------------------------------------------------------|
B|-18/20-----15---16---18---18/20--15---16---18---16---18--16--15---------|
G|------------------------------------------------------------------------|
D|-----------------------------------------------------------------17-----|
A|------------------------------------------------------------------------|
E|------------------------------------------------------------------------|


E|--------------------------------------------------------------------------------------15--|
B|-----------------------------------------------15--16--16/18----15------------13--15------|
G|-----------------15--------------15--15--17-----------------------------------------------|
D|--15---17---18---------17---18------------------------------------------------------------|
A|------------------------------------------------------------------------------------------|
E|------------------------------------------------------------------------------------------|


E|--12/13-------13/15-----15/16---18------13/15----15/17----17/18---20--22--------20/22-----|
B|------------------------------------------------------------------------------------------|
G|------------------------------------------------------------------------------------------|
D|------------------------------------------------------------------------------------------|
A|------------------------------------------------------------------------------------------|
E|------------------------------------------------------------------------------------------|


E|------------------------------------------------------------------------------------------|
B|--------------------15----16----18--------------16--18--16--------------------------------|
G|--------15----17----------------------------17--------------17----15------17--17--17--17--|
D|--18--------------------------------------------------------------------------------------|
A|------------------------------------------------------------------------------------------|
E|------------------------------------------------------------------------------------------|

============================================================================================================ End


Notes:

- Thank you for playing!
Login or Register to remove this ad.