Ads

Volcanic Rim Stage (Street Fighter IV) Guitar Tab

Submitted: May 17, 2009 by CpxAzn (Last updated: May 06, 2016)

5
Average: 5 (6 votes)
Download | Listen
Game: Street Fighter IV
Composer(s): Hideyuki Fukasawa
Style: Transcription

AutoScroll: Slow | Medium | Fast
                              Volcanic Rim Stage                                


                                                                Tabbed by CpxAzn
Electric Guitar



      H          H             Q     E   Q     E   E   E   
E||-------------19~--------|--17----15--14----15--14------|
B||------------------------|--------------------------15--|
G||--16~-------------------|------------------------------|
D||------------------------|------------------------------|
A||------------------------|------------------------------|
E||------------------------|------------------------------|


   H          H            W                    H          H          
------------------------|-------------------|-------------19~--------|
--17~--------12~--------|--L----------------|------------------------|
------------------------|-------------------|--16~-------------------|
------------------------|-------------------|------------------------|
------------------------|-------------------|------------------------|
------------------------|-------------------|------------------------|


   Q     E   Q     E   Q        W                    W                 
--17----15--14----15--17----|--19~----------------|--L----------------|
----------------------------|---------------------|-------------------|
----------------------------|---------------------|-------------------|
----------------------------|---------------------|-------------------|
----------------------------|---------------------|-------------------|
----------------------------|---------------------|-------------------|


   H          H             Q     E   Q     E   E   E   
-------------19~--------|--17----15--14----15--14------|
------------------------|--------------------------15--|
--16~-------------------|------------------------------|
------------------------|------------------------------|
------------------------|------------------------------|
------------------------|------------------------------|


   H          H            W                    H          H          
------------------------|-------------------|-------------19~--------|
--17~--------12~--------|--L----------------|------------------------|
------------------------|-------------------|--16~-------------------|
------------------------|-------------------|------------------------|
------------------------|-------------------|------------------------|
------------------------|-------------------|------------------------|


   Q     E   Q     E   E   E      H          H             W                  
--17----15--14----15--14------|------------------------|--19~----------------|
--------------------------15--|--19~--------17~--------|---------------------|
------------------------------|------------------------|---------------------|
------------------------------|------------------------|---------------------|
------------------------------|------------------------|---------------------|
------------------------------|------------------------|---------------------|


   E   E   E   Q     E   E   E      E   E   E   Q     E   E   E   
--15--12--14--15----12--14--15--|--17--14--15--17----14--15--17--|
--------------------------------|--------------------------------|
--------------------------------|--------------------------------|
--------------------------------|--------------------------------|
--------------------------------|--------------------------------|
--------------------------------|--------------------------------|


   E   E   E   Q     E   E   E      E   E   E   Q     E   E   E   
--17--14--15--17----14--15--17--|--19--20--19--17----15--14--17--|
--------------------------------|--------------------------------|
--------------------------------|--------------------------------|
--------------------------------|--------------------------------|
--------------------------------|--------------------------------|
--------------------------------|--------------------------------|


   E   E   E   Q     E   E   E      E   E   E   Q     Q       E   
--15--12--14--15----12--14--15--|--17--14--15--17----20br----19--|
--------------------------------|--------------------------------|
--------------------------------|--------------------------------|
--------------------------------|--------------------------------|
--------------------------------|--------------------------------|
--------------------------------|--------------------------------|


   E   E   E   Q     E   E   E      W                   
--17--19--20--------------------|----------------------|
--------------17----19--20--22--|--22b~----------------|
--------------------------------|----------------------|
--------------------------------|----------------------|
--------------------------------|----------------------|
--------------------------------|----------------------|


   H          H             Q     E   Q     E   E   E   
-------------19~--------|--17----15--14----15--14------|
------------------------|--------------------------15--|
--16~-------------------|------------------------------|
------------------------|------------------------------|
------------------------|------------------------------|
------------------------|------------------------------|


   H          H            W                    H          H          
------------------------|-------------------|-------------19~--------|
--17~--------12~--------|--L----------------|------------------------|
------------------------|-------------------|--16~-------------------|
------------------------|-------------------|------------------------|
------------------------|-------------------|------------------------|
------------------------|-------------------|------------------------|


   Q     E   Q     E   E   E      H          H             W                  
--17----15--14----15--14------|------------------------|--19~----------------|
--------------------------15--|--19~--------17~--------|---------------------|
------------------------------|------------------------|---------------------|
------------------------------|------------------------|---------------------|
------------------------------|------------------------|---------------------|
------------------------------|------------------------|---------------------|


   T        T        T     T        T        T     
   S  S  S  S  S  S  S  S  S  S  S  S  S  S  S  S  
--------------------------------------------------|
--12p-8p-5-12p-8p-5-12p-8-13p-8p-5-13p-8p-5-13p-8-|
--------------------------------------------------|
--------------------------------------------------|
--------------------------------------------------|
--------------------------------------------------|


   T        T        T     T        T        T     
   S  S  S  S  S  S  S  S  S  S  S  S  S  S  S  S  
--------------------------------------------------|
--12p-8p-5-12p-8p-5-12p-8-10p-7p-3-10p-7p-3-10p-7-|
--------------------------------------------------|
--------------------------------------------------|
--------------------------------------------------|
--------------------------------------------------|


   T        T        T     T        T        T     
   S  S  S  S  S  S  S  S  S  S  S  S  S  S  S  S  
--------------------------------------------------|
--12p-8p-5-12p-8p-5-12p-8-13p-8p-5-13p-8p-5-13p-8-|
--------------------------------------------------|
--------------------------------------------------|
--------------------------------------------------|
--------------------------------------------------|


   T        T        T     T        T        T     
   S  S  S  S  S  S  S  S  S  S  S  S  S  S  S  S  
--------------------------------------------------|
--12p-8p-5-12p-8p-5-12p-8-10p-7p-3-10p-7p-3-10p-7-|
--------------------------------------------------|
--------------------------------------------------|
--------------------------------------------------|
--------------------------------------------------|


   T        T        T     T        T        T     
   S  S  S  S  S  S  S  S  S  S  S  S  S  S  S  S  
--------------------------------------------------|
--------------------------------------------------|
--12p-9p-5-12p-9p-5-12p-9-14p-9p-5-14p-9p-5-14p-9-|
--------------------------------------------------|
--------------------------------------------------|
--------------------------------------------------|


   T        T        T     T         T         T      
   S  S  S  S  S  S  S  S  S   S  S  S   S  S  S   S  
-----------------------------------------------------|
--12p-8p-5-12p-8p-5-12p-8-15p-10p-7-15p-10p-7-15p-10-|
-----------------------------------------------------|
-----------------------------------------------------|
-----------------------------------------------------|
-----------------------------------------------------|


   T         T         T      T          T          T      
   S   S  S  S   S  S  S   S  S   S   S  S   S   S  S   S  
--15p-12p-8-15p-12p-8-15p-12-17p-14p-10-17p-14p-10-17p-14-|
----------------------------------------------------------|
----------------------------------------------------------|
----------------------------------------------------------|
----------------------------------------------------------|
----------------------------------------------------------|


   T          T          T      T                                         
   S   S   S  S   S   S  S   S  H             E   E   E   Q     Q     E   
--19p-15p-12-19p-15p-12-19p-15-19~--------|----------12--15----17----12--|
------------------------------------------|------13----------------------|
------------------------------------------|--14--------------------------|
------------------------------------------|------------------------------|
------------------------------------------|------------------------------|
------------------------------------------|------------------------------|


   Q     E   Q     Q     E      Q.      Q.       Q        Q.      H         E   
--19----17--15----14--------|----------19~------------|----------17~--------L--|
------------------------15--|--17---------------17----|--20--------------------|
----------------------------|-------------------------|------------------------|
----------------------------|-------------------------|------------------------|
----------------------------|-------------------------|------------------------|
----------------------------|-------------------------|------------------------|


   E   E   E   Q     Q     E      Q     E   Q     Q     E   
----------12--15----17----12--|--19----17--15----14--------|
------13----------------------|------------------------15--|
--14--------------------------|----------------------------|
------------------------------|----------------------------|
------------------------------|----------------------------|
------------------------------|----------------------------|


   Q.      Q.      Q        H          H              W                   
----------19------22----|--22b--------24b~--------|--24~----------------||
--17--------------------|-------------------------|---------------------||
------------------------|-------------------------|---------------------||
------------------------|-------------------------|---------------------||
------------------------|-------------------------|---------------------||
------------------------|-------------------------|---------------------||




Duration Legend
---------------
W - whole
H - half
Q - quarter
E - 8th
S - 16th
T - 32nd
X - 64th
. - note dotted
|-n-|  - n-tuplets


Tablature Legend
----------------
L - tied note
x - dead note
g - grace note
(n) - ghost note
> - accentuded note
NH - natural harmonic
AH - artificial harmonic
TH - tapped harmonic
SH - semi harmonic
PH - pitch harmonic
h - hammer on
p - pull off
b - bend
br - bendRelease
pb - preBend
pbr - preBendRelease
brb - bendReleaseBend
\n/ - tremolo bar dip
\n - tremolo bar dive
-/n - tremolo bar Release up
/n\ - tremolo bar inverted dip
/n - tremolo bar return
-\n - tremolo bar Release down
S - shift slide
s - legato slide
/ -  slide into from below or out of upwards
\ -  slide into from above or out of downwards
~ - vibrato
W - wide vibrato
tr - trill
TP - tremolo picking
T - tapping
S - slap
P - pop
< - fade in
^ - brush up
v - brush down
Login or Register to remove this ad.

6 comments on Volcanic Rim Stage

b-e-a-utiful

b-e-a-utiful

Awesome!

Thanks for this - possibly the best guitar track in the game.

not bad

do you think you van do this one:

http://www.youtube.com/watch?v=DXNjJEXeO9U

that would be awesome

That's pretty much the same

That's pretty much the same thing with a whole lot more effects going on in the background and a keyboard solo.

wow cool tabs ^^ this is one

5

wow cool tabs ^^ this is one of the best songs in the game but i like the character select theme more :P

anyway 5/5 Stars man !

wow

5

super!"