Zangief (Street Fighter 2) Guitar Tab

Submitted: Mar 08, 2011 by soundsandstuff

5
Average: 5 (2 votes)
Download | Listen
Game: Street Fighter 2
Composer(s): Yoko Shimomura
Style: Transcription

AutoScroll: Slow | Medium | Fast
Street Fighter 2 - Zangief
Platform: Arcade, Super Nintendo Entertainment System/SNES, multiple platforms
Developer/Publisher: Capcom
Composed by: Yoko Shimomura
	     Isao Abe

Electric Guitar Tab Created By: soundsandstuff channel www.youtube.com/user/soundsandstuff
Completed on: 3/8/11

Standard Tuning

================================================================================================================ 
Part A
E|----------------------------------|---------------------------------|----------------------------------|
B|------13--------------------------|---------------------------------|------13--------------------------|
G|-14----------14----12h14--12------|------12-------------------------|-14----------14----12h14--12------|
D|----------------------------------|-------------15----12----14-15---|----------------------------------|
A|------------------------------15--|-12------------------------------|------------------------------15--|
E|----------------------------------|---------------------------------|----------------------------------|

					Part B				
E|---------------------------------|----------------------------------|----------------------------------------|
B|---------------------------------|----------------------------------|----------------------------------------|
G|------12-------------------------|------------------12h14p12--------|-------------------12----14p12----------|
D|-------------15----12----14-15---|-14------------------------15-14--|-------------------------------15-14-12-|
A|-12------------------------------|------15--------------------------|-13---15--------------------------------|
E|---------------------------------|----------------------------------|----------------------------------------|

										Part AA
E|------------------------------------|----------------------------------------|----------------------------------|
B|------------------------------------|----------------------------------------|------13--------------------------|
G|------12------------12h14p12--------|-------------------12----14p12-------12-|-14----------14----12h14--12------|
D|-14--------------------------15-14--|-------------------------------15-14----|----------------------------------|
A|-------------15---------------------|-13---13-----15-------------------------|------------------------------15--|
E|------------------------------------|----------------------------------------|----------------------------------|


E|---------------------------------|----------------------------------|---------------------------------|
B|---------------------------------|------13--------------------------|---------------------------------|
G|------12-------------------------|-14----------14----12h14--12------|------12-------------------------|
D|-------------15----12----14-15---|----------------------------------|-------------15----12----14-15---|
A|-12------------------------------|------------------------------15--|-12------------------------------|
E|---------------------------------|----------------------------------|---------------------------------|



Part C
E|---------------------------------------|--------------------------------|-------------------------------------|
B|---------------------------------------|--------------------------------|-------------------------------------|
G|---------------------------------------|-12-----------------------------|-----------------------12h14p--12----|
D|-15------14-----12-----12----14-15-----|----------15p14---------12------|---------12------15---------------15-|
A|---------------------------------------|----------------15--15------15--|-13----------------------------------|
E|---------------------------------------|--------------------------------|-------------------------------------|

						Part D
E|-------------------------------------12-|-------13----12----------------13----12h13-----|
B|----------------------------------13----|-15-15----15-------13h15----15----15-------15--|
G|-------------12----14----12----14-------|-----------------------------------------------|
D|-14-------15----------------------------|-----------------------------------------------|
A|----------------------------------------|-----------------------------------------------|
E|----------------------------------------|-----------------------------------------------|


E|-12------13-----15p13----12-------------12-|-------13----12----------------13----12h13-----|
B|----------------------------------13-15----|-15-15----15-------13h15----15----15-------15--|
G|-------------------------------14----------|-----------------------------------------------|
D|-------------------------------------------|-----------------------------------------------|
A|-------------------------------------------|-----------------------------------------------|
E|-------------------------------------------|-----------------------------------------------|


E|-12------13-----15p13----12-------------12-|--------|
B|----------------------------------13-15----|-15-----|
G|-------------------------------14----------|--------|
D|-------------------------------------------|--------|
A|-------------------------------------------|--------|
E|-------------------------------------------|--------|
================================================================================================================ 
Notes:
-Thank you for playing!
Login or Register to remove this ad.