Vega's Theme (Street Fighter 2) Guitar Tab

Submitted: Jun 07, 2010 by soundsandstuff (Last updated: Jun 07, 2010)

5
Average: 5 (1 vote)
Download | Listen
Game: Street Fighter 2
Composer(s): Yoko Shimomura
Style: Transcription

Click here for a video example.

AutoScroll: Slow | Medium | Fast
Street Fighter 2 - Vega
Platform: Arcade, Super Nintendo Entertainment System/SNES, multiple platforms
Developer/Publisher: Capcom
Composed by: Yoko Shimomura
	     Isao Abe

Electric Guitar Tab Created By: soundsandstuff channel www.youtube.com/user/soundsandstuff
Completed on: 5/19/10



================================================================================================================ 

Part A
E|--------|--------|--------|--------|-------------|--------------------------|------------------------|
B|--------|--------|--------|--------|-------10--L-|-10---9-------------------|------------------------|
G|--------|--------|--------|--------|-------------|-----------11---9---------|------------------------|
D|--------|--------|--------|--------|-11----------|---------------------12---|-11-9--11-12-11--L-11-L-|
A|--------|--------|--------|--------|-------------|--------------------------|------------------------|
E|--------|--------|--------|--------|-------------|--------------------------|------------------------|


E|-----------------------------|-------------|-----------------------------|--------|
B|-----------------------------|-------14--L-|-14---12--14--12-------------|--------|
G|-----------------------------|-------------|-------------------14---13---|--------|
D|-11-----------9----11---12---|-11----------|-----------------------------|-11--L--|
A|------11--12-----------------|-------------|-----------------------------|--------|
E|-----------------------------|-------------|-----------------------------|--------|

			      Part B
E|---------------------------|-------------|-----------------------------|---------------------------|
B|---------------------------|-------10--L-|-10---9---10--12---10---9----|---------------------------|
G|------------------9---10---|-11----------|-----------------------------|---------------------------|
D|-11---9---11--12-----------|-------------|-----------------------------|-11-12-11-9--11--L-11--11--|
A|---------------------------|-------------|-----------------------------|---------------------------|
E|---------------------------|-------------|-----------------------------|---------------------------|


E|--------|------------------------|-----------------------------|------------------------|
B|-14-----|------------------------|-------------------12---13---|-14-15-14-13-14--L-14---|
G|--------|-11-13-11-10-11--L-11-L-|-11---13--14--15-------------|------------------------|
D|--------|------------------------|-----------------------------|------------------------|
A|--------|------------------------|-----------------------------|------------------------|
E|--------|------------------------|-----------------------------|------------------------|

	   Part C	
E|--------|---------------------------------|----------------------------------------|
B|--------|------10-L-10--9--10-12-10-9-----|-9-L-9----------------10-12-14-12-10-9--|
G|--------|-11---------------------------11-|----------------------------------------|
D|--------|---------------------------------|--------11-11-L-11-11-------------------|
A|--------|---------------------------------|----------------------------------------|
E|--------|---------------------------------|----------------------------------------|


E|---------------------------|--------|--------------------------|--------|---------------------------------|
B|-10-L10----14--L-14--12-14-|-12-----|------12-L-12--10-9--10---|--------|------12--------12---------------|
G|---------------------------|--------|--------------------------|--------|-----------14--------13-14-13-11-|
D|--------11-----------------|--------|-12-----------------------|-11-----|-13------------------------------|
A|---------------------------|--------|--------------------------|--------|---------------------------------|
E|---------------------------|--------|--------------------------|--------|---------------------------------|


E|--------|---------------------------------|----------------------------------------|
B|--------|------10-L-10--9--10-12-10-9-----|-9-L-9----------------10-12-14-12-10-9--|
G|-13-----|-11---------------------------11-|----------------------------------------|
D|--------|---------------------------------|--------11-11-L-11-11-------------------|
A|--------|---------------------------------|----------------------------------------|
E|--------|---------------------------------|----------------------------------------|


E|-----------9--L--9---------|--------|--------------------------------------|---------------------------------|
B|-10-L10--------------12-14-|-12-----|---------------------------------14---|-----14-15-17-15-14----14--------|
G|---------------------------|--------|--------------------------------------|--------------------16-----------|
D|--------11-----------------|--------|-----11-12-14-12-11----11-----11------|---------------------------------|
A|---------------------------|--------|--------------------14----------------|----------------------------16---|
E|---------------------------|--------|--------------------------------------|---------------------------------|


E|---------------------|
B|---------------------|
G|---------------------|
D|-16------------------|
A|---------------------|
E|---------------------|

========================================================================================================= Repeat/End

Notes:
- Thank you for playing!
Login or Register to remove this ad.